PrimaNota.ru - самый крупный в мире бесплатный архив песенных текстов, аккордов, табулатур и нот


Stahlmann - Göttin - таба, видео

Регистрация Запомнить меня
Войти через:  Facebook Google Twitter Vk Yandex Mail.ru

Stahlmann - Göttin - таба, видео

Печатать
Просмотров: 42
Intro
D|-------------------------------------|
A|-------------------------------------|
F|-------------------------------------|
C|--7757------7757------3323-----3~~2~~|
G|--7757------7757------3323-----3~~2~~|
C|--7757-7-7--7757-7-7--3323-3-3-3~~2~~|
         * *       * *       * *

D|--------------------------------|
A|--------------------------------|
F|--------------------------------|
C|--7------3------0------3-----3~~|
G|--7-x16--3-x16--0-x16--3-x8--3~~|
C|--7------3------0------3-----3~~|



D|-------------------------------------|
A|-------------------------------------|
F|-------------------------------------|
C|--7757------7757------3323-----3~~2~~|
G|--7757------7757------3323-----3~~2~~|
C|--7757-7-7--7757-7-7--3323-3-3-3~~2~~|
         * *       * *       * *

Chorus
D|--------------------------------|
A|--------------------------------|
F|--------------------------------|
C|--7------3------0------3-----3~~|
G|--7-x16--3-x16--0-x16--3-x8--3~~|
C|--7------3------0------3-----3~~|


D|--------------------------------|
A|--------------------------------|
F|--------------------------------|
C|--7------3------0------3-----3~~|
G|--7-x16--3-x16--0-x16--3-x8--3~~|
C|--7------3------0------3-----3~~|

Chorus
D|--------------------------------|
A|--------------------------------|
F|--------------------------------|
C|--7------3------0------3-----3~~|
G|--7-x16--3-x16--0-x16--3-x8--3~~|
C|--7------3------0------3-----3~~|

And the final one
D|-----------------------------------|
A|-----------------------------------|
F|-----------------------------------|
C|--7------3------0------3-----3323--|
G|--7-x16--3-x16--0-x16--3-x8--3323--|
C|--7------3------0------3-----3323--|

* - Palm mute
Добавлено: 24.10.2015
Другие материалы по этой песне:
  • Аккорды и текст

Страница создана 24.10.2015
http://primanota.ru/stahlmann/gottin-chords.htm
Привет, Гость.
Предлагаем пройти революционный курс по гитаре.
Подарок от PrimaNota.Ru, забирай!