PrimaNota.ru - самый крупный в мире бесплатный архив песенных текстов, аккордов, табулатур и нот


Stahlmann - Spring Nicht - текст песни, таба, видео

Регистрация Запомнить меня
Войти через:  Facebook Google Twitter Vk Yandex Mail.ru

Stahlmann - Spring Nicht - текст песни, таба, видео

Печатать
Просмотров: 122
Intro
D|-----------------------|
A|-----------------------|
F|-----------------------|
C|-777-77-00-|-777-77-00-|
G|-555-77-00-|-555-77-00-|
C|-----77-00-|-----77-00-|

(The chorus riff)
D|-------------------------------------------------------------------------------|
A|-------------------------------------------------------------------------------|
F|-------------------------------------------------------------------------------|
C|-7777-7700-7777-5/7--7777-7700-7777-5/7--7777-7700-7777-5/7--5555-53--5555-75--|
G|-5555-7700-5557-5/7--5555-7700-5557-5/7--5555-7700-5557-5/7--3333-53--3333-53--|
C|------7700----7-5/7-------7700----7-5/7-------7700----7-5/7-------53-----------|



D|---------------|---------------|---------------|---------------|
A|---------------|---------------|---------------|---------------|
F|---------------|---------------|---------------|---------------|
C|----7---5----0-|----7---5----0-|----7---5----0-|----7---5----0-|
G|----5---3----0-|----5---3----0-|----5---3----0-|----5---3----0-|
C|--0---0---00-0-|--0---0---00-0-|--0---0---00-0-|--0---0---00-0-|
    *   *   **      *   *   **      *   *   **      *   *   **    

Chorus
D|-------------------------------------------------------------------------------|
A|-------------------------------------------------------------------------------|
F|-------------------------------------------------------------------------------|
C|-7777-7700-7777-5/7--7777-7700-7777-5/7--7777-7700-7777-5/7--5555-53--5555-75--| x2
G|-5555-7700-5557-5/7--5555-7700-5557-5/7--5555-7700-5557-5/7--3333-53--3333-53--|
C|------7700----7-5/7-------7700----7-5/7-------7700----7-5/7-------53-----------|

D|---------------|---------------|---------------|---------------|---------------|
A|---------------|---------------|---------------|---------------|---------------|
F|---------------|---------------|---------------|---------------|---------------|
C|----7---5----0-|----7---5----0-|----7---5----0-|----7---5----0-|----7---5----0-|
G|----5---3----0-|----5---3----0-|----5---3----0-|----5---3----0-|----5---3----0-|
C|--0---0---00-0-|--0---0---00-0-|--0---0---00-0-|--0---0---00-0-|--0---0---00-0-|
    *   *   **      *   *   **      *   *   **      *   *   **      *   *   **

D|---------------|   -----------------|   ------------|
A|---------------|   -----------------|   ------------|
F|---------------|   -----------------|   ------------|
C|----7---5----0-|   ---10---10-8---8-|   -33333333-5-|
G|----5---3----0-|x4 ---8----10-8---8-|x2 -33333333-3-|
C|--0---0---00-0-|   -8----8-10-8-8-8-|   -33333333---|
    *   *   **        *    *      *        

Chorus
D|-------------------------------------------------------------------------------|
A|-------------------------------------------------------------------------------|
F|-------------------------------------------------------------------------------|
C|-7777-7700-7777-5/7--7777-7700-7777-5/7--7777-7700-7777-5/7--5555-53--5555-75--| x2
G|-5555-7700-5557-5/7--5555-7700-5557-5/7--5555-7700-5557-5/7--3333-53--3333-53--|
C|------7700----7-5/7-------7700----7-5/7-------7700----7-5/7-------53-----------|

D|-----------------------------------------------------------|
A|-----------------------------------------------------------|
F|-----------------------------------------------------------|
C|-----------------------------------------------------------|
G|--------------232--------------232--------------232--------|
C|-7~~7-5~~5-2~~----7~~7-5~~5-2~~----7~~7-5~~5-2~~----7~~787-|

D|-----------------------------------------------------------------------------|
A|-----------------------------------------------------------------------------|
F|-----------------------------------------------------------------------------|
C|----7----5----2--5/6\6-----7----5----2--5/6\6-----7----5----2--5/6\6-7~~777~~|
G|----7----5----2--3/4\3-----7----5----2--3/4\3-----7----5----2--3/4\3-7~~777~~|
C|-00-7-00-5-00-2---------00-7-00-5-00-2---------00-7-00-5-00-2--------7~~777~~|
   **   **   **           **   **   **           **   **   **                 


Chorus
D|-------------------------------------------------------------------------------|
A|-------------------------------------------------------------------------------|
F|-------------------------------------------------------------------------------|
C|-7777-7700-7777-5/7--7777-7700-7777-5/7--7777-7700-7777-5/7--5555-53--5555-75--| x2
G|-5555-7700-5557-5/7--5555-7700-5557-5/7--5555-7700-5557-5/7--3333-53--3333-53--|
C|------7700----7-5/7-------7700----7-5/7-------7700----7-5/7-------53-----------|



* - palm mute
/ - slide up
\ - slide down
~ - let ring a bit

 
Добавлено: 24.10.2015
Другие материалы по этой песне:
  • Аккорды и текст

Страница создана 28.11.2014
http://primanota.ru/stahlmann/spring-nicht-chords.htm
Привет, Гость.
Предлагаем пройти революционный курс по гитаре.
Подарок от PrimaNota.Ru, забирай!