PrimaNota.ru - самый крупный в мире бесплатный архив песенных текстов, аккордов, табулатур и нот


Speedy Ortiz - Taylor Swift - таба, видео

Регистрация Запомнить меня
Войти через:  Facebook Google Twitter Vk Yandex Mail.ru

Speedy Ortiz - Taylor Swift - таба, видео

Печатать
Просмотров: 124
-------------------------------------------------------------------------------
                             Taylor Swift - Speedy Ortiz
-------------------------------------------------------------------------------
Tabbed by: marceloargh
Tuning: Standard (EADGBe)


Guitar 1 - Sadie
Guitar 2 - Matt


Intro/verse 1:

Guitar 1
e|---------------------------------------------------------------------------|
B|---------------------------------------------------------------------------|
G|---------------------------------------------------------------------------|
D|--0---0---0---0---0---0---0---0---0---0------------------------------------|
A|--1---1---0---1---1---0---1---1---0---1------------------------------------|
E|--1---1---1---1---1---1---1---1---1---1------------------------------------|

Guitar 2
e|---------------------------------------------------------------------------|
B|---------------------------------------------------------------------------|
G|---------------------------------------------------------------------------|
D|--0---0---0---0---0---0---0---0---0---0------------------------------------|
A|--1---1---0---1---1---0---1---1---0---1------------------------------------|
E|--1---1---1---1---1---1---1---1---1---1------------------------------------|






Verse 2:

Guitar 1
e|---------------------------------------------------------------------------|
B|---------------------------------------------------------------------------|
G|---------------------------------------------------------------------------|
D|--0---0---0---0---0---0---0---0---0---0---0---0----------------------------|
A|--1---1---0---1---1---0---1---1---0---1---1---0----------------------------|
E|--1---1---1---1---1---1---1---1---1---1---1---1----------------------------|

Guitar 2
e|---------------------------------------------------------------------------|
B|---------------------------------------------------------------------------|
G|---------------------------------------------------------------------------|
D|--0---0---0---0---0---0---0---0---0---0---0---0----------------------------|
A|--1---1---0---1---1---0---1---1---0---1---1---0----------------------------|
E|--1---1---1---1---1---1---1---1---1---1---1---1----------------------------|




Guitar 1
e|---------------------------------------------------------------------------|
B|---------------------------------------------------------------------------|
G|--3-------3-----3-3---3---3---3-------3---3-----3-3---3---3----------------|
D|--1-------1-----1-1---1---1---1-------1---1-----1-1---1---1----------------|
A|--3-------3-----3-3---3---3---3-------3---3-----2-3---3---3---0------------|
E|--3-------3-----3-3---3---0---2-------2---2-----2-2---2---2---0------------|

Guitar 2
e|---------------------------------------------------------------------------|
B|---------------------------------------------------------------------------|
G|---------------------------------------------------------------------------|
D|--12------12------12--12--0---10------10--10------10--10--10--0------------|
A|--13------13------13--13--0---9-------9---9-------9---9---9---0------------|
E|--------------------------0------------------------------------------------|




Chorus:

both guitars:
e|---------------------------------------------------------------------------|
B|---------------------------------------------------------------------------|
G|--3---3---3---7-------7---7---5-------5---5---3-------3---3---3------------|
D|--3---3---3---7-------7---7---5-------5---5---3-------3---3---3------------|
A|--1---1---1---5-------5---5---3-------3---3---1-------1---1---0------------|
E|---------------------------------------------------------------------------|

e|---------------------------------------------------------------------------|
B|---------------------------------------------------------------------------|
G|--3---3---3-----------------------------------8-------8---8---8------------|
D|--3---3---3---3-------3---3---5-------5---5---8-------8---8---8------------|
A|--1---1---1---3-------3---3---5-------5---5---6-------6---6---6------------|
E|--------------1-------1---1---3-------3---3--------------------------------|

e|---------------------------------------------------------------------------|
B|---------------------------------------------------------------------------|
G|--5---5---5-------------------6-------6---6---3-------3---3---3------------|
D|--5---5---5---5-------5---5---6-------6---6---3-------3---3---3------------|
A|--3---3---3---5-------5---5---4-------4---4---1-------1---1---1------------|
E|--------------3-------3---3------------------------------------------------|

e|---------------------------------------------------------------------------|
B|---------------------------------------------------------------------------|
G|--5---5---5---8-------8---8---6-------6---6---3-------3---3---3------------|
D|--5---5---5---8-------8---8---6-------6---6---3-------3---3---3------------|
A|--3---3---3---6-------6---6---4-------4---4---1-------1---1---1------------|
E|---------------------------------------------------------------------------|

e|---------------------------------------------------------------------------|
B|---------------------------------------------------------------------------|
G|--3---3---3----------------------------------------------------------------|
D|--3---3---3---3-------3---3---13------13--13--13--13--13--13--13-----------|
A|--1---1---1---3-------3---3---13------13--13--13--13--13--13--13-----------|
E|--------------1-------1---1---11------11--11--11--11--11--11--11-----------|


song order:

intro/verse 1   x4
verse 2         x4
chorus          x1
intro/verse 1   x2
verse 2         x4
chorus          x1
intro/verse 1   x2



Notes:

If you have any corrections, please tell me in the comments section. Also, please be polite.
Live version contain a few different details, Matt does something on beginning of chorus when 
playing live I can't figure out. If you know what it is, please let me know. 
This tab was done on Matt's playing.


************************************

| /   slide up
| \   slide down
| h   hammer-on
| p   pull-off
| ~   vibrato
| +   harmonic
| x   Mute note
| b   Bend
| pb  Pre-bend
| br  Bend release
| pbr Pre-bend release
| brb Bend release bend

************************************
Добавлено: 23.05.2015
Другие материалы по этой песне:
  • Аккорды и текст

Страница создана 23.05.2015
http://primanota.ru/speedy-ortiz/taylor-swift-chords.htm
Привет, Гость.
Предлагаем пройти революционный курс по гитаре.
Подарок от PrimaNota.Ru, забирай!