PrimaNota.ru - самый крупный в мире бесплатный архив песенных текстов, аккордов, табулатур и нот


Speedy Ortiz - Plough - таба, видео

Регистрация Запомнить меня
Войти через:  Facebook Google Twitter Vk Yandex Mail.ru

Speedy Ortiz - Plough - таба, видео

Печатать
Просмотров: 37
-------------------------------------------------------------------------------
                             Plough - Speedy Ortiz
-------------------------------------------------------------------------------

I learned this by listening to the song and watching videos of them playing it live
so I know it's not 100% accurate but I think it's pretty close. 

Tuning:Standard

        INTRO

GUITAR 1 (Sadie)
e|-----------------------------------------------------------------------------|
B|-----------------------------------------------------------------------------|
G|------------------4-----4--------------------------5-5-5-5-------------------|
D|------------6--------------------------------------5-5-5-5-------------------|
A|--5--8-5-4------3-----3---------------5--8-5-4-----3-3-3-3-------------------|
E|-----------------------------------------------------------------------------|


GUITAR 2 (Matt/Devin)
e|--9----------------------------------9---------------------------------------|
B|----------7-----------------------------------7------------------------------|
G|---------------------5~----------------------------5-5-5-5-------------------|
D|---------------------------------------------------5-5-5-5-------------------|
A|---------------------------------------------------3-3-3-3-------------------|
E|-----------------------------------------------------------------------------|
(Don't let your lids black...)



GUITAR 1
e|-----------------------------------------------------------------------------|
B|-----------------------------------------------------------------------------|
G|--0---0-0--6---6-6---5-5-5-5-5-5------0---0-0--6---6-6---5-5-5-5-5-5---------|
D|--4---4-4--6---6-6---5-5-5-5-5-5------4---4-4--6---6-6---5-5-5-5-5-5---------|x2
A|--5---5-5--4---4-4---3-3-3-3-3-3------5---5-5--4---4-4---3-3-3-3-3-3---------|
E|-----------------------------------------------------------------------------|


GUITAR 2
e|--9-----------------------------------9--------------------------------------|
B|-----------7----------------------------------7------------------------------|
G|---------------------5~----------------------------5-5-5-5-------------------|
D|---------------------------------------------------5-5-5-5-------------------|x2
A|---------------------------------------------------3-3-3-3-------------------|
E|-----------------------------------------------------------------------------|
(We used to go out...)
(Y.H.V.H now...)



Here I think they just make noise on the guitar for a few bars. I don't know if they
actually have anything specfic that they're supposed to play for this bit, it always
seems random.




        VERSE 1  (I only know Sadie's part for the rest of the song, sorry about that)

e|-----------------------------------------------0--0-0-3--3-3-3-------------|
B|-----------------------------------------------1--1-1-0--0-0-0-------------|
G|-----9-9-9--------5--5-5----------0-0-0-1--1-1-0--0-0-0--0-0-0-------------|
D|-----9-9-9-9--9-9-5--5-5-5--5-5-5-1-1-1-2--2-2-2--2-2-0--0-0-0-------------|
A|-----7-7-7-9--9-9-3--3-3-5--5-5-5-1-1-1-2--2-2-3--3-3-2--2-2-2-------------|
E|-----------7--7-7--------3--3-3-3---------------------3--3-3-3-------------|
(No it isn't the first time you showed up...)

e|---------------------------------------------------------------------------|
B|---------------------------------------------------------------------------|
G|-----9-9-9--------5--5-5----------8-8-8-9--9-9-5--5-5----------------------|
D|-----9-9-9-9--9-9-5--5-5-5--5-5-5-8-8-8-9--9-9-5--5-5-5--5-5-5-------------|
A|-----7-7-7-9--9-9-3--3-3-5--5-5-5-6-6-6-7--7-7-3--3-3-5--5-5-5-------------|
E|-----------7--7-7--------3--3-3-3---------------------3--3-3-3-------------|
(And some virgin parchment you brought me to read...)

e|---------------------------------------------------------------------------|
B|---------------------------------------------------------------------------|
G|-----8-8-8-9------------------------------8-8-8-9--9-9-9-5--5-5------------|
D|-----8-8-8-9------------------------------8-8-8-9--9-9-9-5--5-5-5--5-5-----|
A|-----6-6-6-7------------------------------6-6-6-7--7-7-7-3--3-3-5--5-5-----|
E|---------------0/11-12--0/11-12--0/11-12------------------------3--3-3-----|



        VERSE 2

e|-----------------------------------------------0--0-0-3--3-3-3-------------|
B|-----------------------------------------------1--1-1-0--0-0-0-------------|
G|-----9-9-9--------5--5-5----------0-0-0-1--1-1-0--0-0-0--0-0-0-------------|
D|-----9-9-9-9--9-9-5--5-5-5--5-5-5-1-1-1-2--2-2-2--2-2-0--0-0-0-------------|
A|-----7-7-7-9--9-9-3--3-3-5--5-5-5-1-1-1-2--2-2-3--3-3-2--2-2-2-------------|
E|-----------7--7-7--------3--3-3-3---------------------3--3-3-3-------------|
(That's an adult situation you threw...)

e|---------------------------------------------------------------------------|
B|---------------------------------------------------------------------------|
G|-----9-9-9--------5--5-5----------8-8-8-9--9-9-5--5-5----------------------|
D|-----9-9-9-9--9-9-5--5-5-5--5-5-5-8-8-8-9--9-9-5--5-5-5--5-5-5-------------|
A|-----7-7-7-9--9-9-3--3-3-5--5-5-5-6-6-6-7--7-7-3--3-3-5--5-5-5-------------|
E|-----------7--7-7--------3--3-3-3---------------------3--3-3-3-------------|
(I was never the witch that you made me to be...)

e|---------------------------------------------------------------------|
B|---------------------------------------------------------------------|
G|--8-8-8-9--9-9-5--5-5----------8-8-8-9--9-9-5--5-5-------------------|
D|--8-8-8-9--9-9-5--5-5-5--5-5-5-8-8-8-9--9-9-5--5-5-5--5-5-.5--5-5----|
A|--6-6-6-7--7-7-3--3-3-5--5-5-5-6-6-6-7--7-7-3--3-3-5--5-5-.5--5-5----|
E|----------------------3--3-3-3---------------------3--3-3-.3--3-3----|
(Yeah you picked a virgin over me, yeah you picked a virgin)



        BRIDGE

e|---------------------|
B|---------------------|
G|---------------------|
D|----5--5-5-2---------|
A|----5--5-5-2---------|
E|----3--3-3-0---------|
(The plough emptied out-)

Then Sadie doesn't play for the next few lines:

        (- and that was enough
        I slid towards the door but you started freaking the fuck out
        Stop shaking, why you freaking the fuck out?
        You better stop 'cause it's freaking me out)



e|---------------------------------------------------------------------------|
B|---------------------------------------------------------------------------|
G|----------------------4--4-4-4-----------------4/7--5-4--------------------|
D|----------------------5--5-5-5--------------------------5------------------|
A|------7--5-7-5--------5--5-5-5-----7--5-7-5-2------------------------------|
E|--0------------7-5-3--3--3-3-3--0------------------------------------------|
(He wants to burn all my candles...)

e|---------------------------------------------------------------------------|
B|---------------------------------------------------------------------------|
G|------------------4/7--5-4-------------------------------------------------|
D|---------------------------5--2--2-2-2-2-5--5-5-5-5------------------------|
A|------7--5-7-5-2--------------2--2-2-2-2-5--5-5-5-5------------------------|
E|--0---------------------------0--0-0-0-0-3--3-3-3-3------------------------|
(He wants sulphur and salt...)

e|-------------------------------------------------|
B|-------------------------------------------------|
G|-------------------------------------------------|
D|--9--9-9-9-9-5--5-5-5-5-9--9-9-9-9-5--5-5-5-5----|Just play this until the last bit
A|--9--9-9-9-9-5--5-5-5-5-9--9-9-9-9-5--5-5-5-5----|
E|--7--7-7-7-7-3--3-3-3-3-7--7-7-7-7-3--3-3-3-3----|
(He wants to burn all my candles...)



        OUTRO
e|-------------------------------|
B|-------------------------------|
G|-----9-9-9--------5--5-5-------|
D|-----9-9-9-9--9-9-5--5-5-5-----|
A|-----7-7-7-9--9-9-3--3-3-5-----|
E|-----------7--7-7--------3-----|


************************************

| /   slide up
| \   slide down
| h   hammer-on
| p   pull-off
| ~   vibrato
| +   harmonic
| x   Mute note
| b   Bend
| pb  Pre-bend
| br  Bend release
| pbr Pre-bend release
| brb Bend release bend

************************************
Добавлено: 04.04.2016
Другие материалы по этой песне:
  • Аккорды и текст

Страница создана 04.04.2016
http://primanota.ru/speedy-ortiz/plough-chords.htm
Привет, Гость.
Предлагаем пройти революционный курс по гитаре.
Подарок от PrimaNota.Ru, забирай!