PrimaNota.ru - самый крупный в мире бесплатный архив песенных текстов, аккордов, табулатур и нот


Speedy Ortiz - Gary - таба, видео

Регистрация Запомнить меня
Войти через:  Facebook Google Twitter Vk Yandex Mail.ru

Speedy Ortiz - Gary - таба, видео

Печатать
Просмотров: 137
-------------------------------------------------------------------------------
                               Gary - Speedy Ortiz
-------------------------------------------------------------------------------
Tabbed by: marceloargh
ATTENTION: guitars are tuned diferently:

Guitar 1 - Sadie (left ear) - Drop D (DADGBe)
Guitar 2 - Matt (right ear) - Standard (EADGBe)




0:00

Guitar 1
e|---------------------------------------------------------------------------|
B|---------------------------------------------------------------------------|
G|---------------------------------------------------------------------------|
D|---------------------------------------------------------------------------|
A|---------------------------------------------------------------------------|
D|---------------------------------------------------------------------------|

Guitar 2
e|---------------------------------------------------------------------------|
B|---------------------------------------------------------------------------|
G|---------------------------------------------------------------------------|
D|---------------------------------------------------------------------------|
A|--6-----------------------6---------------6---------------6\---------------|
E|----------3-------3---------------5---------------6------------------------|




0:05

Guitar 1
e|---------------------------------------------------------------------------|
B|---------------------------------------------------------------------------|
G|---------------------------------------------------------------------------|
D|---------------------------------------------------------------------------|
A|---------------------------------------------------------------------------|
D|---------------------------------------------------------------------------|

Guitar 2
e|---------------------------------------------------------------------------|
B|----------1---------------2---------------0---------------1----------------|
G|------3-------3-------3---------------3-------3-------3-------3------------|
D|--4---------------4---------------4---------------4------------------------|
A|---------------------------------------------------------------------------|
E|---------------------------------------------------------------------------|

repeat all this one time




0:18

Guitar 1
e|---------------------------------------------------------------------------|
B|---------------------------------------------------------------------------|
G|---------------------------------------------------------------------------|
D|---------------------------------------------------------------------------|
A|---------------------------------------------------------------------------|
D|--13~-----------------------------------------------------13\--------------|

Guitar 2
e|---------------------------------------------------------------------------|
B|---------------------------------------------------------------------------|
G|---------------------------------------------------------------------------|
D|---------------------------------------------------------------------------|
A|--6-----------------------6---------------6---------------6\---------------|
E|----------3-------3---------------5---------------6------------------------|




0:22

Guitar 1
e|---------------------------------------------------------------------------|
B|---------------------------------------------------------------------------|
G|---------------------------------------------------------------------------|
D|---------------------------------------------------------------------------|
A|---------------------------------------------------------------------------|
D|-\4~------------------------------------------------------4/---------------|

Guitar 2
e|---------------------------------------------------------------------------|
B|----------1---------------2---------------0---------------1----------------|
G|------3-------3-------3---------------3-------3-------3-------3------------|
D|--4---------------4---------------4---------------4------------------------|
A|---------------------------------------------------------------------------|
E|---------------------------------------------------------------------------|




0:27

Guitar 1
e|---------------------------------------------------------------------------|
B|---------------------------------------------------------------------------|
G|---------------------------------------------------------------------------|
D|---------------------------------------------------------------------------|
A|---------------------------------------------------------------------------|
D|-/13~-----------------------------------------------------13/--------------|

Guitar 2
e|---------------------------------------------------------------------------|
B|---------------------------------------------------------------------------|
G|---------------------------------------------------------------------------|
D|---------------------------------------------------------------------------|
A|--6-----------------------6---------------6---------------6\---------------|
E|----------3-------3---------------5---------------6------------------------|




0:31

Guitar 1
e|---------------------------------------------------------------------------|
B|---------------------------------------------------------------------------|
G|---------------------------------------------------------------------------|
D|---------------------------------------------------------------------------|
A|---------------------------------------------------------------------------|
D|-/16~---------------------------------------------------------16\----------|

Guitar 2
e|---------------------------------------------------------------------------|
B|----------1---------------2---------------0---------------1----------------|
G|------3-------3-------3---------------3-------3-------3-------3------------|
D|--4---------------4---------------4---------------4------------------------|
A|---------------------------------------------------------------------------|
E|---------------------------------------------------------------------------|




0:36 "I have seen the art of my stupid counterpart"

Guitar 1
e|---------------------------------------------------------------------------|
B|---------------------------------------------------------------------------|
G|---------------------------------------------------------------------------|
D|---------------------------------------------------------------------------|
A|---------------------------------------------------------------------------|
D|-\13------------------------------------------------------13\--------------|

Guitar 2
e|---------------------------------------------------------------------------|
B|---------------------------------------------------------------------------|
G|---------------------------------------------------------------------------|
D|---------------------------------------------------------------------------|
A|--6-----------------------6---------------6---------------6\---------------|
E|----------3-------3---------------5---------------6------------------------|




0:41 "The proportion's wrong"

Guitar 1
e|---------------------------------------------------------------------------|
B|---------------------------------------------------------------------------|
G|---------------------------------------------------------------------------|
D|---------------------------------------------------------------------------|
A|---------------------------------------------------------------------------|
D|-\4~------------------------------------------------------4/---------------|

Guitar 2
e|---------------------------------------------------------------------------|
B|----------1---------------2---------------0---------------1----------------|
G|------3-------3-------3---------------3-------3-------3-------3------------|
D|--4---------------4---------------4---------------4------------------------|
A|---------------------------------------------------------------------------|
E|---------------------------------------------------------------------------|




0;45 "Every line unsure, the erased marks like a sore"

Guitar 1
e|---------------------------------------------------------------------------|
B|---------------------------------------------------------------------------|
G|---------------------------------------------------------------------------|
D|---------------------------------------------------------------------------|
A|---------------------------------------------------------------------------|
D|-/13~-----------------------------------------------------13/--------------|

Guitar 2
e|---------------------------------------------------------------------------|
B|---------------------------------------------------------------------------|
G|---------------------------------------------------------------------------|
D|---------------------------------------------------------------------------|
A|--6-----------------------6---------------6---------------6\---------------|
E|----------3-------3---------------5---------------6------------------------|




0:50 " thumb swelling and cumbersome"

Guitar 1
e|---------------------------------------------------------------------------|
B|---------------------------------------------------------------------------|
G|---------------------------------------------------------------------------|
D|---------------------------------------------------------------------------|
A|---------------------------------------------------------------------------|
D|-\4~-----------------------------------------------------------------------|

Guitar 2
e|---------------------------------------------------------------------------|
B|----------1---------------2---------------0---------------1----------------|
G|------3-------3-------3---------------3-------3-------3-------3------------|
D|--4---------------4---------------4---------------4------------------------|
A|---------------------------------------------------------------------------|
E|---------------------------------------------------------------------------|




0:54 "Still, the prints get made. Though I really wanna say that"

Guitar 1
e|---------------------------------------------------------------------------|
B|---------------------------------------------------------------------------|
G|---------------------------------------------------------------------------|
D|---------------------------------------------------------------------------|
A|---------------------------------------------------------------------------|
D|---------------------------------------------------------------------------|

Guitar 2
e|---------------------------------------------------------------------------|
B|---------------------------------------------------------------------------|
G|---------------------------------------------------------------------------|
D|--6---------------6---------------9---------------9------------------------|
A|--6---------------6---------------9---------------9------------------------|
E|--4---------------4---------------7---------------7------------------------|




0:58 "I've got her beat, I never speak"

Guitar 1
e|---------------------------------------------------------------------------|
B|---------------------------------------------------------------------------|
G|---------------------------------------------------------------------------|
D|---------------------------------------------------------------------------|
A|---------------------------------------------------------------------------|
D|---------------------------------------------------------------------------|

Guitar 2
e|---------------------------------------------------------------------------|
B|---------------------------------------------------------------------------|
G|---------------------------------------------------------------------------|
D|--4---------------4-----------------------2---------------4----------------|
A|--4---------------4-------------------2---------------2--------------------|
E|--2---------------2---------------0---------------0------------------------|




1:03

Guitar 1
e|---------------------------------------------------------------------------|
B|---------------------------------------------------------------------------|
G|---------------------------------------------------------------------------|
D|---------------------------------------------------------------------------|
A|---------------------------------------------------------------------------|
D|---------------------------------------------------------------------------|

Guitar 2
e|---------------------------------------------------------------------------|
B|---------------------------------------------------------------------------|
G|---------------------------------------------------------------------------|
D|---------------------------------------------------------------------------|
A|--6-----------------------6---------------6---------------6\---------------|
E|----------3-------3---------------5---------------6------------------------|




1:08

Guitar 1
e|--18-----------------------------------------------------------------------|
B|------16--14---------------------------------------------------------------|
G|--------------16--15-b16-r15----------15--15-b16-r15-----15-b16------------|
D|---------------------------------------------------------------------------|
A|---------------------------------------------------------------------------|
D|---------------------------------------------------------------------------|

Guitar 2
e|---------------------------------------------------------------------------|
B|----------1---------------2---------------0---------------1----------------|
G|------3-------3-------3---------------3-------3-------3-------3------------|
D|--4---------------4---------------4---------------4------------------------|
A|---------------------------------------------------------------------------|
E|---------------------------------------------------------------------------|




1:12

Guitar 1
e|---------------------------------------------------------------------------|
B|---------------------------------------------------------------------------|
G|-r15~----------------------------------------------------------------------|
D|---------------------------------------------------------------------------|
A|---------------------------------------------------------------------------|
D|---------------------------------------------------------------------------|

Guitar 2
e|---------------------------------------------------------------------------|
B|---------------------------------------------------------------------------|
G|---------------------------------------------------------------------------|
D|---------------------------------------------------------------------------|
A|--6-----------------------6---------------6---------------6\---------------|
E|----------3-------3---------------5---------------6------------------------|




1:16

Guitar 1
e|--18-----------------------------------------------------------------------|
B|------16--14---------------------------------------------------------------|
G|--------------16--15-b16-r15----------15--15-b16-r15~----------------------|
D|---------------------------------------------------------------------------|
A|---------------------------------------------------------------------------|
D|---------------------------------------------------------------------------|

Guitar 2
e|---------------------------------------------------------------------------|
B|----------1---------------2---------------0---------------1----------------|
G|------3-------3-------3---------------3-------3-------3-------3------------|
D|--4---------------4---------------4---------------4------------------------|
A|---------------------------------------------------------------------------|
E|---------------------------------------------------------------------------|




1:21 "When a playdate ends, do you call your other friends or"

Guitar 1
e|---------------------------------------------------------------------------|
B|---------------------------------------------------------------------------|
G|---------------------------------------------------------------------------|
D|---------------------------------------------------------------------------|
A|--1-------------------------------------------------------1-/-4------------|
D|--1-------------------------------------------------------1-/-4------------|

Guitar 2
e|---------------------------------------------------------------------------|
B|---------------------------------------------------------------------------|
G|---------------------------------------------------------------------------|
D|---------------------------------------------------------------------------|
A|--6-----------------------6---------------6---------------6\---------------|
E|----------3-------3---------------5---------------6------------------------|




1:25 "do you go home?"

Guitar 1
e|---------------------------------------------------------------------------|
B|---------------------------------------------------------------------------|
G|---------------------------------------------------------------------------|
D|---------------------------------------------------------------------------|
A|--4-------------------------------------------------------4-\-1------------|
D|--4-------------------------------------------------------4-\-1------------|

Guitar 2
e|---------------------------------------------------------------------------|
B|----------1---------------2---------------0---------------1----------------|
G|------3-------3-------3---------------3-------3-------3-------3------------|
D|--4---------------4---------------4---------------4------------------------|
A|---------------------------------------------------------------------------|
E|---------------------------------------------------------------------------|




1:30 "Do you lock your door? Do you lay down on your carpet counting"

Guitar 1
e|---------------------------------------------------------------------------|
B|---------------------------------------------------------------------------|
G|---------------------------------------------------------------------------|
D|---------------------------------------------------------------------------|
A|--1-------------------------------------------------------1-/-4------------|
D|--1-------------------------------------------------------1-/-4------------|

Guitar 2
e|---------------------------------------------------------------------------|
B|---------------------------------------------------------------------------|
G|---------------------------------------------------------------------------|
D|---------------------------------------------------------------------------|
A|--6-----------------------6---------------6---------------6\---------------|
E|----------3-------3---------------5---------------6------------------------|




1:34 "threads 'til you get to one?"

Guitar 1
e|---------------------------------------------------------------------------|
B|---------------------------------------------------------------------------|
G|---------------------------------------------------------------------------|
D|---------------------------------------------------------------------------|
A|--4-----------------------------------------------------------4-/-6--------|
D|--4-----------------------------------------------------------4-/-6--------|

Guitar 2
e|---------------------------------------------------------------------------|
B|----------1---------------2---------------0---------------1----------------|
G|------3-------3-------3---------------3-------3-------3-------3------------|
D|--4---------------4---------------4---------------4------------------------|
A|---------------------------------------------------------------------------|
E|---------------------------------------------------------------------------|




1:38 "Once you've sat with kids, it's so hard to leave their table"

Guitar 1
e|---------------------------------------------------------------------------|
B|---------------------------------------------------------------------------|
G|---------------------------------------------------------------------------|
D|---------------------------------------------------------------------------|
A|--6---------------6-------6-/-9---9---------------9-------9-\-4------------|
D|--6---------------6-------6-/-9---9---------------9-------9-\-4------------|

Guitar 2
e|---------------------------------------------------------------------------|
B|---------------------------------------------------------------------------|
G|---------------------------------------------------------------------------|
D|--6---------------6-------6-/-9---9---------------9-------9-\-4------------|
A|--6---------------6-------6-/-9---9---------------9-------9-\-4------------|
E|--4---------------4-------4-/-7---7---------------7-------7-\-2------------|




1:43 "for the kids full grown. And my, I've grown"

Guitar 1
e|---------------------------------------------------------------------------|
B|---------------------------------------------------------------------------|
G|---------------------------------------------------------------------------|
D|---------------------------------------------------------------------------|
A|--4---------------4-------4-/-14--14--14--14--14--14--14--14--14-----------|
D|--4---------------4-------4-/-14--14--14--14--14--14--14--14--14-----------|

Guitar 2
e|---------------------------------------------------------------------------|
B|--------------------------------------------------4---2--------------------|
G|------------------------------------------3-------3---3---3---3------------|
D|--4---------------4-------4---0---4---4---4---4---4---4---4---4------------|
A|--4---------------4-------4---0---2---2---2---2---2---2---2---2------------|
E|--2---------------2-------2---0---0---0---0---0---0---0---0---0------------|




1:47 "some very big teeth"

Guitar 1
e|---------------------------------------------------------------------------|
B|---------------------------------------------------------------------------|
G|---------------------------------------------------------------------------|
D|---------------------------------------------------------------------------|
A|--14--14--14--14--14--14--14--14-------------------------------------------|
D|--14--14--14--14--14--14--14--14-------------------------------------------|

Guitar 2
e|---------------------------------------------------------------------------|
B|---------------------------------------------------------------------------|
G|--3---3---3---3---3---3---3---3--------------------------------------------|
D|--4---4---4---4---4---4---4---4--------------------------------------------|
A|--2---2---2---2---2---2---2---2--------------------------------------------|
E|--0---0---0---0---0---0---0---0--------------------------------------------|




1:49 "they're not even full"

Guitar 1
e|---------------------------------------------------------------------------|
B|---------------------------------------------------------------------------|
G|------------------------------5---5---5------------------------------------|
D|------------------------------5---5---5------------------------------------|
A|--1---1-------9---9---9-------3---3---3-------5---5---5-------5------------|
D|--1---1-------9---9---9-----------------------5---5---5-------5------------|

Guitar 2
e|---------------------------------------------------------------------------|
B|---------------------------------------------------------------------------|
G|--8---8-------8---8---8-------8---8---8------------------------------------|
D|--8---8-------8---8---8-------8---8---8-------5---5---5-------5------------|
A|--6---6---------------------------------------5---5---5-------5------------|
E|--------------7---7---7-------8---8---8-------3---3---3-------3------------|



1:53 "grown"

e|---------------------------------------------------------------------------|
B|---------------------------------------------------------------------------|
G|---------------------------------------------------------------------------|
D|---------------------------------------------------------------------------|
A|--5---5-------5---5---5-------5---6-------6--------------------------------|
D|--5---5-------5---5---5-------5---6-------6--------------------------------|

e|---------------------------------------------------------------------------|
B|---------------------------------------------------------------------------|
G|---------------------------------------------------------------------------|
D|--5---5-------5---5---5-------5---6-------6--------------------------------|
A|--5---5-------5---5---5-------5---6-------6--------------------------------|
E|--3---3-------3---3---3-------3---4-------4--------------------------------|




1:57 "They're not even full"

Guitar 1
e|---------------------------------------------------------------------------|
B|---------------------------------------------------------------------------|
G|------------------------------5---5---5------------------------------------|
D|------------------------------5---5---5------------------------------------|
A|--1---1-------9---9---9-------3---3---3-------5---5---5---6----------------|
D|--1---1-------9---9---9-----------------------5---5---5---6----------------|

Guitar 2
e|---------------------------------------------------------------------------|
B|---------------------------------------------------------------------------|
G|--8---8-------8---8---8-------8---8---8------------------------------------|
D|--8---8-------8---8---8-------8---8---8-------5---5---5---6----------------|
A|--6---6---------------------------------------5---5---5---6----------------|
E|--------------7---7---7-------8---8---8-------3---3---3---4----------------|




2:01


e|---------------------------------------------------------------------------|
B|---------------------------------------------------------------------------|
G|---------------------------------------------------------------------------|
D|---------------------------------------------------------------------------|
A|---------------------------------------------------------------------------|
D|---------------------------------------------------------------------------|

Guitar 2
e|---------------------------------------------------------------------------|
B|---------------------------------------------------------------------------|
G|---------------------------------------------------------------------------|
D|---------------------------------------------------------------------------|
A|--6-----------------------6---------------6---------------6\---------------|
E|----------3-------3---------------5---------------6------------------------|




2:05

Guitar 1
e|--18-----------------------------------------------------------------------|
B|------16--14---------------------------------------------------------------|
G|--------------16--15-b16-r15----------15--15-b16-r15-----15-b16------------|
D|---------------------------------------------------------------------------|
A|---------------------------------------------------------------------------|
D|---------------------------------------------------------------------------|

Guitar 2
e|---------------------------------------------------------------------------|
B|----------1---------------2---------------0---------------1----------------|
G|------3-------3-------3---------------3-------3-------3-------3------------|
D|--4---------------4---------------4---------------4------------------------|
A|---------------------------------------------------------------------------|
E|---------------------------------------------------------------------------|




2:10

Guitar 1
e|---------------------------------------------------------------------------|
B|---------------------------------------------------------------------------|
G|-r15~----------------------------------------------------------------------|
D|---------------------------------------------------------------------------|
A|---------------------------------------------------------------------------|
D|---------------------------------------------------------------------------|

Guitar 2
e|---------------------------------------------------------------------------|
B|---------------------------------------------------------------------------|
G|---------------------------------------------------------------------------|
D|---------------------------------------------------------------------------|
A|--6-----------------------6---------------6---------------6\---------------|
E|----------3-------3---------------5---------------6------------------------|




2:14

Guitar 1
e|--18-----------------------------------------------------------------------|
B|------16--14---------------------------------------------------------------|
G|--------------16--15-b16-r15----------15--15-b16-r15------15-\13-----------|
D|---------------------------------------------------------------------------|
A|---------------------------------------------------------------------------|
D|---------------------------------------------------------------------------|

Guitar 2
e|---------------------------------------------------------------------------|
B|----------1---------------2---------------0---------------1----------------|
G|------3-------3-------3---------------3-------3-------3-------3------------|
D|--4---------------4---------------4---------------4------------------------|
A|---------------------------------------------------------------------------|
E|---------------------------------------------------------------------------|




2:18 "Once you've sat with kids, it's so hard to leave their table"

Guitar 1
e|---------------------------------------------------------------------------|
B|---------------------------------------------------------------------------|
G|--13~---------------------13-/16--16~---------------------16-\11-----------|
D|---------------------------------------------------------------------------|
A|---------------------------------------------------------------------------|
D|---------------------------------------------------------------------------|

Guitar 2
e|---------------------------------------------------------------------------|
B|---------------------------------------------------------------------------|
G|---------------------------------------------------------------------------|
D|--6---------------6-------6-/-9---9---------------9-------9-\-4------------|
A|--6---------------6-------6-/-9---9---------------9-------9-\-4------------|
E|--4---------------4-------4-/-7---7---------------7-------7-\-2------------|




2:22 "for the kids full grown. And my, I've grown"

Guitar 1
e|---------------------------------------------------------------------------|
B|---------------------------------------------------------------------------|
G|--11~---------------------11 \9---9~---------------------------------------|
D|---------------------------------------------------------------------------|
A|---------------------------------------------------------------------------|
D|---------------------------------------------------------------------------|

Guitar 2
e|---------------------------------------------------------------------------|
B|---------------------------------------------------------------------------|
G|------------------------------------------3---3---3---3---3---3------------|
D|--4---------------4-------4---0---4---4---4---4---4---4---4---4------------|
A|--4---------------4-------4---0---2---2---2---2---2---2---2---2------------|
E|--2---------------2-------2---0---0---0---0---0---0---0---0---0------------|




2:27 "some very big teeth"

e|---------------------------------------------------------------------------|
B|---------------------------------------------------------------------------|
G|---------------------------------------------------------------------------|
D|---------------------------------------------------------------------------|
A|---------------------------------------------------------------------------|
D|---------------------------------------------------------------------------|

Guitar 2
e|---------------------------------------------------------------------------|
B|---------------------------------------------------------------------------|
G|--3---3---3---3---3---3---3---3--------------------------------------------|
D|--4---4---4---4---4---4---4---4--------------------------------------------|
A|--2---2---2---2---2---2---2---2--------------------------------------------|
E|--0---0---0---0---0---0---0---0--------------------------------------------|




2:29

Guitar 1
e|---------------------------------------------------------------------------|
B|---------------------------------------------------------------------------|
G|------------------------------5---5---5------------------------------------|
D|--1---1-------9---9---9-------5---5---5-------5---5---5-------5------------|
A|--1---1-------9---9---9-------3---3---3-------5---5---5-------5------------|
D|--1---1-------9---9---9-----------------------5---5---5-------5------------|

Guitar 2
e|---------------------------------------------------------------------------|
B|---------------------------------------------------------------------------|
G|--8---8-------8---8---8-------8---8---8------------------------------------|
D|--8---8-------8---8---8-------8---8---8-------5---5---5-------5------------|
A|--6---6---------------------------------------5---5---5-------5------------|
E|--------------7---7---7-------8---8---8-------3---3---3-------3------------|




2:33

Guitar 1
e|---------------------------------------------------------------------------|
B|---------------------------------------------------------------------------|
G|---------------------------------------------------------------------------|
D|--5---5-------5---5---5-------5---5---5-------5---6-------6----------------|
A|--5---5-------5---5---5-------5---5---5-------5---6-------6----------------|
D|--5---5-------5---5---5-------5---5---5-------5---6-------6----------------|

Guitar 2
e|---------------------------------------------------------------------------|
B|---------------------------------------------------------------------------|
G|---------------------------------------------------------------------------|
D|--5---5-------5---5---5-------5---5---5-------5---6-------6----------------|
A|--5---5-------5---5---5-------5---5---5-------5---6-------6----------------|
E|--3---3-------3---3---3-------3---3---3-------3---4-------4----------------|




2:37

Guitar 1
e|---------------------------------------------------------------------------|
B|---------------------------------------------------------------------------|
G|------------------------------5---5---5------------------------------------|
D|--1---1-------9---9---9-------5---5---5-------5---5---5-------5------------|
A|--1---1-------9---9---9-------3---3---3-------5---5---5-------5------------|
D|--1---1-------9---9---9-----------------------5---5---5-------5------------|

Guitar 2
e|---------------------------------------------------------------------------|
B|---------------------------------------------------------------------------|
G|--8---8-------8---8---8-------8---8---8------------------------------------|
D|--8---8-------8---8---8-------8---8---8-------5---5---5-------5------------|
A|--6---6---------------------------------------5---5---5-------5------------|
E|--------------7---7---7-------8---8---8-------3---3---3-------3------------|




2:41

Guitar 1
e|---------------------------------------------------------------------------|
B|---------------------------------------------------------------------------|
G|---------------------------------------------------------------------------|
D|--5---5-------5---5---5-------5---6-------6--------------------------------|
A|--5---5-------5---5---5-------5---6-------6--------------------------------|
D|--5---5-------5---5---5-------5---6-------6--------------------------------|

Guitar 2
e|---------------------------------------------------------------------------|
B|---------------------------------------------------------------------------|
G|---------------------------------------------------------------------------|
D|--5---5-------5---5---5-------5---6-------6--------------------------------|
A|--5---5-------5---5---5-------5---6-------6--------------------------------|
E|--3---3-------3---3---3-------3---4-------4--------------------------------|




2:44

Guitar 1
e|---------------------------------------------------------------------------|
B|---------------------------------------------------------------------------|
G|------------------------------5---5---5------------------------------------|
D|--1---1-------9---9---9-------5---5---5-------5---5---5-------5------------|
A|--1---1-------9---9---9-------3---3---3-------5---5---5-------5------------|
D|--1---1-------9---9---9-----------------------5---5---5-------5------------|

Guitar 2
e|---------------------------------------------------------------------------|
B|---------------------------------------------------------------------------|
G|--8---8-------8---8---8-------8---8---8------------------------------------|
D|--8---8-------8---8---8-------8---8---8-------5---5---5-------5------------|
A|--6---6---------------------------------------5---5---5-------5------------|
E|--------------7---7---7-------8---8---8-------3---3---3-------3------------|




2:48

Guitar 1
e|---------------------------------------------------------------------------|
B|---------------------------------------------------------------------------|
G|---------------------------------------------------------------------------|
D|--5---5-------5---6-------6------------------------------------------------|
A|--5---5-------5---6-------6------------------------------------------------|
D|--5---5-------5---6-------6------------------------------------------------|

Guitar 2
e|---------------------------------------------------------------------------|
B|---------------------------------------------------------------------------|
G|---------------------------------------------------------------------------|
D|--5---5-------5---6-------6------------------------------------------------|
A|--5---5-------5---6-------6------------------------------------------------|
E|--3---3-------3---4-------4------------------------------------------------|




2:50

Guitar 1
e|---------------------------------------------------------------------------|
B|---------------------------------------------------------------------------|
G|------------------------------5---5---5------------------------------------|
D|--1---1-------9---9---9-------5---5---5-------5---5---5---5---6------------|
A|--1---1-------9---9---9-------3---3---3-------5---5---5---5---6------------|
D|--1---1-------9---9---9-----------------------5---5---5---5---6------------|

Guitar 2
e|---------------------------------------------------------------------------|
B|---------------------------------------------------------------------------|
G|--8---8-------8---8---8-------8---8---8------------------------------------|
D|--8---8-------8---8---8-------8---8---8-------5---5---5---5---6------------|
A|--6---6---------------------------------------5---5---5---5---6------------|
E|--------------7---7---7-------8---8---8-------3---3---3---3---4------------|


BREAK!




2:59

Guitar 1
e|---------------------------------------------------------------------------|
B|---------------------------------------------------------------------------|
G|------------------------------5---5---5------------------------------------|
D|--1---1-------9---9---9-------5---5---5-------5---5---5-------5------------|
A|--1---1-------9---9---9-------3---3---3-------5---5---5-------5------------|
D|--1---1-------9---9---9-----------------------5---5---5-------5------------|

Guitar 2
e|---------------------------------------------------------------------------|
B|---------------------------------------------------------------------------|
G|--8---8-------8---8---8-------8---8---8------------------------------------|
D|--8---8-------8---8---8-------8---8---8-------5---5---5-------5------------|
A|--6---6---------------------------------------5---5---5-------5------------|
E|--------------7---7---7-------8---8---8-------3---3---3-------3------------|




3:03

Guitar 1
e|---------------------------------------------------------------------------|
B|---------------------------------------------------------------------------|
G|---------------------------------------------------------------------------|
D|--5---5-------5---5---5-------5---6-------6--------------------------------|
A|--5---5-------5---5---5-------5---6-------6--------------------------------|
D|--5---5-------5---5---5-------5---6-------6--------------------------------|

Guitar 2
e|---------------------------------------------------------------------------|
B|---------------------------------------------------------------------------|
G|---------------------------------------------------------------------------|
D|--5---5-------5---5---5-------5---6-------6--------------------------------|
A|--5---5-------5---5---5-------5---6-------6--------------------------------|
E|--3---3-------3---3---3-------3---4-------4--------------------------------|




3:06

Guitar 1
e|---------------------------------------------------------------------------|
B|---------------------------------------------------------------------------|
G|------------------------------5---5---5------------------------------------|
D|--1---1-------9---9---9-------5---5---5-------5---5---5-------5------------|
A|--1---1-------9---9---9-------3---3---3-------5---5---5-------5------------|
D|--1---1-------9---9---9-----------------------5---5---5-------5------------|

Guitar 2
e|---------------------------------------------------------------------------|
B|---------------------------------------------------------------------------|
G|--8---8-------8---8---8-------8---8---8------------------------------------|
D|--8---8-------8---8---8-------8---8---8-------5---5---5-------5------------|
A|--6---6---------------------------------------5---5---5-------5------------|
E|--------------7---7---7-------8---8---8-------3---3---3-------3------------|




3:10

Guitar 1
e|---------------------------------------------------------------------------|
B|---------------------------------------------------------------------------|
G|---------------------------------------------------------------------------|
D|--5---5-------5---6-------6------------------------------------------------|
A|--5---5-------5---6-------6------------------------------------------------|
D|--5---5-------5---6-------6------------------------------------------------|

Guitar 2
e|---------------------------------------------------------------------------|
B|---------------------------------------------------------------------------|
G|---------------------------------------------------------------------------|
D|--5---5-------5---6-------6------------------------------------------------|
A|--5---5-------5---6-------6------------------------------------------------|
E|--3---3-------3---4-------4------------------------------------------------|




3:12

Guitar 1
e|---------------------------------------------------------------------------|
B|---------------------------------------------------------------------------|
G|------------------------------5---5---5------------------------------------|
D|--1---1-------9---9---9-------5---5---5-------5---5---5---5---5------------|
A|--1---1-------9---9---9-------3---3---3-------5---5---5---5---5------------|
D|--1---1-------9---9---9-----------------------5---5---5---5---5------------|

Guitar 2
e|---------------------------------------------------------------------------|
B|---------------------------------------------------------------------------|
G|--8---8-------8---8---8-------8---8---8------------------------------------|
D|--8---8-------8---8---8-------8---8---8-------5---5---5---5---5------------|
A|--6---6---------------------------------------5---5---5---5---5------------|
E|--------------7---7---7-------8---8---8-------3---3---3---3---3------------|



3:16

Guitar 1
e|---------------------------------------------------------------------------|
B|---------------------------------------------------------------------------|
G|------------------------------5---5---5------------------------------------|
D|--1---1-------9---9---9-------5---5---5-------5---5---5-------5------------|
A|--1---1-------9---9---9-------3---3---3-------5---5---5-------5------------|
D|--1---1-------9---9---9-----------------------5---5---5-------5------------|

Guitar 2
e|---------------------------------------------------------------------------|
B|---------------------------------------------------------------------------|
G|--8---8-------8---8---8-------8---8---8------------------------------------|
D|--8---8-------8---8---8-------8---8---8-------5---5---5-------5------------|
A|--6---6---------------------------------------5---5---5-------5------------|
E|--------------7---7---7-------8---8---8-------3---3---3-------3------------|




3:20

Guitar 1
e|---------------------------------------------------------------------------|
B|---------------------------------------------------------------------------|
G|---------------------------------------------------------------------------|
D|--5---5-------5---5---5-------5---5---5-------5---5---5--------------------|
A|--5---5-------5---5---5-------5---5---5-------5---5---5--------------------|
D|--5---5-------5---5---5-------5---5---5-------5---5---5--------------------|

Guitar 2
e|---------------------------------------------------------------------------|
B|---------------------------------------------------------------------------|
G|---------------------------------------------------------------------------|
D|--5---5-------5---5---5-------5---5---5-------5---5---5--------------------|
A|--5---5-------5---5---5-------5---5---5-------5---5---5--------------------|
E|--3---3-------3---3---3-------3---3---3-------3---3---3--------------------|



Notes:
I know the tab is long, but it was the only way to add every detail.
If you have any corrections, please tell me in the comments section. Also, please be polite.
Live version contain a few different details.
This tab was done on Matt's playing. Devin may play slightly different.

************************************

| /   slide up
| \   slide down
| h   hammer-on
| p   pull-off
| ~   vibrato
| +   harmonic
| x   Mute note
| b   Bend
| pb  Pre-bend
| br  Bend release
| pbr Pre-bend release
| brb Bend release bend

************************************
Добавлено: 22.06.2015
Другие материалы по этой песне:
  • Аккорды и текст

Страница создана 22.06.2015
http://primanota.ru/speedy-ortiz/gary-chords.htm
Привет, Гость.
Предлагаем пройти революционный курс по гитаре.
Подарок от PrimaNota.Ru, забирай!