PrimaNota.ru - самый крупный в мире бесплатный архив песенных текстов, аккордов, табулатур и нот


Speedy Ortiz - Casper 1995 - таба, видео

Регистрация Запомнить меня
Войти через:  Facebook Google Twitter Vk Yandex Mail.ru

Speedy Ortiz - Casper 1995 - таба, видео

Печатать
Просмотров: 124
-------------------------------------------------------------------------------
                             Casper (1995) - Speedy Ortiz
-------------------------------------------------------------------------------
Tabbed by: marceloargh
Tuning: Standard (EADGBe)

Guitar 1 - Sadie (left ear)
Guitar 2 - Matt  (right ear)


Intro:

Guitar 1
e|---------------------------------------------------------------------------|
B|---------------------------------------------------------------------------|
G|------------------------------------------2-------2-/-3-\-2-p-0------------|
D|--------------------------------------0-------0----------------------------|
A|----------------------------------1----------------------------------------|
E|---------------------------------------------------------------------------|

Guitar 2
e|---------------------------------------------------------------------------|
B|---------------------------------------------------------------------------|
G|----------2-------2-/-3---2-p-0-----------2-------2-/-3---2-p-0------------|
D|------0-------0-----------------------0-------0----------------------------|
A|--1-------------------------------1----------------------------------------|
E|---------------------------------------------------------------------------|




Guitar 1
e|---------------------------------------------------------------------------|
B|---------------------------------------------------------------------------|
G|----------2-------2-/-3-\-2-p-0--------------------------------------------|
D|------0-------0------------------------------------------------------------|
A|--1------------------------------------------------------------------------|
E|---------------------------------------------------------------------------|

Guitar 2
e|---------------------------------------------------------------------------|
B|---------------------------------------------------------------------------|
G|----------2-------2-/-3---2-p-0--------------------------------------------|
D|------0-------0------------------------------------------------------------|
A|--1------------------------------------------------------------------------|
E|---------------------------------------------------------------------------|






Verse:

Guitar 1
e|---------------------------------------------------------------------------|
B|------------------------------------------0-------0-h-1-p-0----------------|
G|----------2-------2-/-3-\-2-p-0-------2-------2----------------------------|
D|------0-------0-------------------3----------------------------------------|
A|--1------------------------------------------------------------------------|
E|--------------------------------------------------------------0------------|

Guitar 2
e|---------------------------------------------------------------------------|
B|------------------------------------------0-------0-h-1-p-0----------------|
G|----------2-------2-/-3---2-p-0-------2-------2----------------------------|
D|------0-------0-------------------3----------------------------------------|
A|--1------------------------------------------------------------------------|
E|---------------------------------------------------------------------------|




Guitar 1
e|---------------------------------------------------------------------------|
B|---------------------------------------------------------------------------|
G|--------------------------------------------------3~-----------------------|
D|------------------0---------------------------------------4----------------|
A|------0---1---3-------3---1---0-------0---1---3/5-------------0------------|
E|--3-------------------------------2----------------------------------------|

Guitar 2
e|---------------------------------------------------------------------------|
B|---------------------------------------------------------------------------|
G|---------------------------------------------------------------------------|
D|---------------------------------------------------------------------------|
A|------0---1---3--/5--\3---1---0-------0---1---3--/5--\3---1---0------------|
E|--3-------------------------------2----------------------------------------|






Pre-chorus:

Guitar 1
e|---------------------------------------------------------------------------|
B|------------------------------------------0-------0-h-1-p-0----------------|
G|----------2-------2-/-3-\-2-p-0-------2-------2----------------------------|
D|------0-------0-------------------3----------------------------------------|
A|--1------------------------------------------------------------------------|
E|--------------------------------------------------------------0------------|

Guitar 2
e|---------------------------------------------------------------------------|
B|------------------------------------------0-------0-h-1-p-0----------------|
G|----------2-------2-/-3---2-p-0-------2-------2----------------------------|
D|------0-------0-------------------3----------------------------------------|
A|--1------------------------------------------------------------------------|
E|---------------------------------------------------------------------------|




Guitar 1
e|---------------------------------------------------------------------------|
B|---------------------------------------------------------------------------|
G|---------------------------------------------------------------------------|
D|------------------0--------------------------------------------------------|
A|------0---1---3-------3---1---0-------0---1-------3---1---0----------------|
E|--3-------------------------------2---------------------------3------------|

Guitar 2
e|---------------------------------------------------------------------------|
B|---------------------------------------------------------------------------|
G|---------------------------------------------------------------------------|
D|---------------------------------------------------------------------------|
A|------0---1---3--/5--\3---1---0-------0---1-------3---1---0----------------|
E|--3-------------------------------2---------------------------3------------|





Chorus:

Guitar 1
e|---------------------------------------------------------------------------|
B|---------------------------------------------------------------------------|
G|---------------------------------------------------------------------------|
D|--3-------11--\---9---11--\---6-------6---6--------------------------------|
A|--------------------------------------------------3---1---0----------------|
E|--1-------9---\---6---9---\---4-------4---4-------------------3------------|

Guitar 2
e|---------------------------------------------------------------------------|
B|--1---------------------------1-------1---1--------------------------------|
G|--0---------------------------0-------0---0--------------------------------|
D|--7-------7-------------------2-------2---2--------------------------------|
A|--8-----------8---4-/-6-/-8---3-------3---3-------3---1---0----------------|
E|--------------------------------------------------------------3------------|




Guitar 1
e|---------------------------------------------------------------------------|
B|---------------------------------------------------------------------------|
G|---------------------------------------------------------------------------|
D|--3-------11--\---9---11--\---6-------6---6--------------------------------|
A|--------------------------------------------------3---1---0----------------|
E|--1-------9---\---6---9---\---4-------4---4-------------------3------------|

Guitar 2
e|---------------------------------------------------------------------------|
B|--1---------------------------1-------1---1--------------------------------|
G|--0---------------------------0-------0---0--------------------------------|
D|--7-------7-------------------2-------2---2--------------------------------|
A|--8-----------8---4-/-6-/-8---3-------3---3-------3---1---0----------------|
E|--------------------------------------------------------------3------------|



Guitar 1
e|---------------------------------------------------------------------------|
B|---------------------------------------------------------------------------|
G|---------------------------------------------------------------------------|
D|---------------------------------------------------------------------------|
A|--------------------------------------8---7---8---10~----------------------|
E|--5-------13--\---10--13--\---8--------------------------------------------|

Guitar 2
e|---------------------------------------------------------------------------|
B|---------------------------------------------------------------------------|
G|---------------------------------------------------------------------------|
D|----------7----------------------------------------------------------------|
A|--8-----------8---8-/-10-/12----------8---7---8---10~----------------------|
E|------------------------------8--------------------------------------------|




Guitar 1
e|---------------------------------------------------------------------------|
B|------10--10------10--10------10------10--10------10--10------10-----------|
G|---------------------------------------------------------------------------|
D|-/7-----------7-----------7-------7-----------7-----------7----------------|
A|---------------------------------------------------------------------------|
E|---------------------------------------------------------------------------|

Guitar 2
e|---------------------------------------------------------------------------|
B|---------------------------------------------------------------------------|
G|---------------------------------------------------------------------------|
D|--7---7---7---7---7---7---7---7---7---7---7---7---7---7---7---7------------|
A|--8---8---8---8---8---8---8---8---8---8---8---8---8---8---8---8------------|
E|--5---5---5---5---5---5---5---5---5---5---5---5---5---5---5---5------------|




Guitar 1
e|---------------------------------------------------------------------------|
B|---------------------------------------------------------------------------|
G|--3-/-4---4----------------------------------------------------------------|
D|--3-/-4---4----------------------------------------------------------------|
A|--1-/-2---2----------------------------------------------------------------|
E|---------------------------------------------------------------------------|

Guitar 2
e|---------------------------------------------------------------------------|
B|---------------------------------------------------------------------------|
G|--3-/-4---4----------------------------------------------------------------|
D|--3-/-4---4----------------------------------------------------------------|
A|--1-/-2---2----------------------------------------------------------------|
E|---------------------------------------------------------------------------|






Outro:

Guitar 1
e|---------------------------------------------------------------------------|
B|---------------------------------------------------------------------------|
G|------12--0-----------10--9------------------------------------------------|
D|--------------11--12------------------12--------------10-p9---9------------|
A|--9---------------------------11----------0---11--12-----------------------|
E|----------------------------------10---------------------------------------|

Guitar 2
e|------------------0-------------------------------0------------------------|
B|------------------0-------------------------------0------------------------|
G|----------2-------2-------2---------------2-------2-------2----------------|
D|---------------------------------------------------------------------------|
A|--1-------------------------------1----------------------------------------|
E|---------------------------------------------------------------------------|




Guitar 1
e|---------------------------------------------------------------------------|
B|------12------------------10--0--------------------------------------------|
G|--------------11-h12------------------12--0-----------10--9----------------|
D|--9-------9-----------------------------------11--12-----------------------|
A|----------------------------------9---------------------------11-----------|
E|---------------------------------------------------------------------------|

Guitar 2
e|------------------0-------------------------------0------------------------|
B|------------------0-------------------------------0------------------------|
G|----------2-------2-------2---------------2-------2-------2----------------|
D|---------------------------------------------------------------------------|
A|--1-------------------------------1----------------------------------------|
E|---------------------------------------------------------------------------|




Guitar 1
e|---------------------------------------------------------------------------|
B|--------------------------------------12------------------10--0------------|
G|----------------------------------------------11-h12-----------------------|
D|------12--------------10-p9---9---9-------9--------------------------------|
A|----------0---11--12-------------------------------------------------------|
E|--10-----------------------------------------------------------------------|

Guitar 2
e|------------------0-------------------------------0------------------------|
B|------------------0-------------------------------0------------------------|
G|----------2-------2-------2---------------3-------3-------3----------------|
D|---------------------------------------------------------------------------|
A|--1-------------------------------2----------------------------------------|
E|---------------------------------------------------------------------------|



Guitar 1
e|---------------------------------------------------------------------------|
B|----------------------------------------------------------------------12---|
G|------12--0-----------10--9------------------------------------------------|
D|--------------11--12------------------12--------------10-p9---9---9--------|
A|--9---------------------------11----------0---11--12-----------------------|
E|----------------------------------10---------------------------------------|

Guitar 2
e|------------------0---------------0---------------0---------------0--------|
B|------------------0---------------0---------------0---------------0--------|
G|----------3-------3-------3-------3-------3-------3-------3-------3--------|
D|----------------------------------x---------------x---------------x--------|
A|--2-------------------------------2---------------2---------------2--------|
E|---------------------------------------------------------------------------|


Song order:

intro           x1
verse           x5
pre chorus      x1
chorus          x1
verse           x3
pre chorus      x1
chorus          x1
outro           x1


Notes:

If you have any corrections, please tell me in the comments section. Also, please be polite.
Live version contain a few different details. There's a bunch of live videos for this song 
on both youtube and vimeo.
This tab was done on Matt's playing. Devin may play slightly different.


************************************

| /   slide up
| \   slide down
| h   hammer-on
| p   pull-off
| ~   vibrato
| +   harmonic
| x   Mute note
| b   Bend
| pb  Pre-bend
| br  Bend release
| pbr Pre-bend release
| brb Bend release bend

************************************
Добавлено: 22.06.2015
Другие материалы по этой песне:
  • Аккорды и текст

Страница создана 22.06.2015
http://primanota.ru/speedy-ortiz/casper-1995-chords.htm
Привет, Гость.
Предлагаем пройти революционный курс по гитаре.
Подарок от PrimaNota.Ru, забирай!