PrimaNota.ru - самый крупный в мире бесплатный архив песенных текстов, аккордов, табулатур и нот


Speedy Ortiz - Basketball - таба, видео

Регистрация Запомнить меня
Войти через:  Facebook Google Twitter Vk Yandex Mail.ru

Speedy Ortiz - Basketball - таба, видео

Печатать
Просмотров: 103
-------------------------------------------------------------------------------
                             Basketball - Speedy Ortiz
-------------------------------------------------------------------------------
Tabbed by: marceloargh
Tuning: drop D

Guitar 1 - Sadie
Guitar 2 - Matt



Intro/verse 1:

Guitar 1
e|---------------------------------------------------------------------------|
B|---------------------------------------------------------------------------|
G|---------------------------------------------------------------------------|
D|--3---3---x-x-x-x-1---1---x-x-x-x-6---6---x-x-x-x-4---x-x-----0------------|
A|--5---3---x-x-x-x-3---1---x-x-x-x-8---6---x-x-x-x-6---x-x-1/2--------------|
D|--3---3---x-x-x-x-1---1---x-x-x-x-6---6---x-x-x-x-4---x-x------------------|

Guitar 2
e|---------------------------------------------------------------------------|
B|---------------------------------------------------------------------------|
G|---------------------------------------------------------------------------|
D|--3---3---x-x-x-x-1---1---x-x-x-x-6---6---x-x-x-x-4---x-x-----0------------|
A|--5---3---x-x-x-x-3---1---x-x-x-x-8---6---x-x-x-x-6---x-x-1/2--------------|
D|--3---3---x-x-x-x-1---1---x-x-x-x-6---6---x-x-x-x-4---x-x------------------|






Verse 2:

Guitar 1
e|---------------------------------------------------------------------------|
B|---------------------------------------------------------------------------|
G|---------------------------------------------------------------------------|
D|--------------4-------------------------------4-----------4----------------|
A|----------4h5-------------4---2-----------4h5-------4h5p4-----5------------|
D|--0---0---------------4-----------0---0-----------5------------------------|

Guitar 2
e|---------------------------------------------------------------------------|
B|----------------------5----------------------------------------------------|
G|--------------------------------------------------0------------------------|
D|------------------------------7-------------------4------b5--r4------------|
A|---------------------------------------------------------------------------|
D|---------------------------------------------------------------------------|



Guitar 1
e|---------------------------------------------------------------------------|
B|---------------------------------------------------------------------------|
G|---------------------------------------------------------------------------|
D|--------------4-------------------------------4-----------4----------------|
A|----------4h5-------------4---2-----------4h5---------4h5-----5------------|
D|--0---0---------------4-----------0---0-----------4h5----------------------|

Guitar 2
e|---------------------------------------------------------------------------|
B|----------------------5----------------------------------------------------|
G|---------------------------------------------------------------------------|
D|------------------------------7---------------------------4----------------|
A|------------------------------------------------------4h5-----5------------|
D|--------------------------------------------------4h5----------------------|






Pre-chorus verse:

Guitar 1
e|---------------------------------------------------------------------------|
B|---------------------------------------------------------------------------|
G|---------------------------------------------------------------------------|
D|--------------4-------------------------------4---4---4---0----------------|
A|----------4h5-------------4---2-----------4h5-----4---4---0----------------|
D|--0---0---------------4-----------0---0-----------4---4---0----------------|


Guitar 2
e|---------------------------------------------------------------------------|
B|----------------------5----------------------------------------------------|
G|---------------------------------------------------------------------------|
D|------------------------------7-------------------4---4---0----------------|
A|--------------------------------------------------4---4---0----------------|
D|--------------------------------------------------4---4---0----------------|






Chorus:

Guitar 1
e|---------------------------------------------------------------------------|
B|---------------------------------------------------------------------------|
G|---------------------------------------------------------------------------|
D|--8-------8-----8-8---0---3---5-------5---5------/12-b13-r12~--------------|
A|--8-------8-----8-8---0---3---5-------5---5--------------------------------|
D|--8-------8-----8-8---0---3---5-------5---5--------------------------------|

Guitar 2
e|--6------------------------------------------------------------------------|
B|--------------------------------------11--------------6--------------------|
G|----------7-----7-7p5h7~---------/12------12--10-/7-------7---5------------|
D|---------------------------------------------------------------------------|
A|---------------------------------------------------------------------------|
D|---------------------------------------------------------------------------|




Notes:

If you have any corrections, please tell me in the comments section. Also, please be polite.
Live version contain a few different details. There's a bunch of live videos for this song.
This tab was done on Matt's playing. Devin may play it slightly differently.

************************************

| /   slide up
| \   slide down
| h   hammer-on
| p   pull-off
| ~   vibrato
| +   harmonic
| x   Mute note
| b   Bend
| pb  Pre-bend
| br  Bend release
| pbr Pre-bend release
| brb Bend release bend

************************************
Добавлено: 22.06.2015
Другие материалы по этой песне:
  • Аккорды и текст

Страница создана 22.06.2015
http://primanota.ru/speedy-ortiz/basketball-chords.htm
Привет, Гость.
Предлагаем пройти революционный курс по гитаре.
Подарок от PrimaNota.Ru, забирай!