PrimaNota.ru - самый крупный в мире бесплатный архив песенных текстов, аккордов, табулатур и нот


Speedy Ortiz - Cash Cab - таба, видео

Регистрация Запомнить меня
Войти через:  Facebook Google Twitter Vk Yandex Mail.ru

Speedy Ortiz - Cash Cab - таба, видео

Печатать
Просмотров: 140
-------------------------------------------------------------------------------
                             Cash Cab - Speedy Ortiz
-------------------------------------------------------------------------------
Tabbed by: marceloargh
Tuning: Standard (EADGBe)

Guitar 1 - Sadie (left ear)
Guitar 2 - Matt (right ear)



Intro:

Guitar 1
e|-+7--+7--+7--+7--+7--+7--+7--+7--+7--+7--+7--+7/---------------------------|
B|-+7--+7--+7--+7--+7--+7--+7--+7--+7--+7--+7--+7/---------------------------|
G|-+7--+7--+7--+7--+7--+7--+7--+7--+7--+7--+7--+7/-slide up slowly-----------|
D|-+7--+7--+7--+7--+7--+7--+7--+7--+7--+7--+7--+7/---------------------------|
A|---------------------------------------------------------------------------|
E|---------------------------------------------------------------------------|

Guitar 2
e|--x---x---x---x---x---x---x---x---x---x---x---x---x---x---x---x------------|
B|--x---x---x---x---x---x---x---x---x---x---x---x---x---x---x---x------------|
G|--12--12--12--12--12--12--12--12--12--12--12--12--12--12--12--12-----------|
D|--12--12--12--12--12--12--12--12--12--12--12--12--12--12--12--12-----------|
A|--10--10--10--10--10--10--10--10--10--10--10--10--10--10--10--10-----------|
E|---------------------------------------------------------------------------|




Guitar 1
e|---------------------------------------------------------------------------|
B|---------------------------------------------------------------------------|
G|---------------------------------------------------------------------------|
D|--10b11~-------------------------------------------/14~--------------------|
A|---------------------------------------------------------------------------|
E|---------------------------------------------------------------------------|

Guitar 2
e|---------------------------------------------------------------------------|
B|---------------------------------------------------------------------------|
G|---MAKE SOME NOISE (FEEDBACK)----------------------------------------------|
D|---------------------------------------------------------------------------|
A|---------------------------------------------------------------------------|
E|---------------------------------------------------------------------------|






Verse 1 (pt.1):

Guitar 1
e|---------------------------------------------------------------------------|
B|---------------------------------------------------------------------------|
G|--------------------------------------10-----------------------------------|
D|--12--12--12-b13--12--12--12--12--12------12--12---------------------------|
A|---------------------------------------------------------------------------|
E|---------------------------------------------------------------------------|

Guitar 2
e|---------------------------------------------------------------------------|
B|---------------------------------------------------------------------------|
G|--7---7---7--b8---7---7---7---7---7--/10--7---7----------------------------|
D|---------------------------------------------------------------------------|
A|---------------------------------------------------------------------------|
E|---------------------------------------------------------------------------|


Verse 1 (pt.2):

Guitar 1
e|---------------------------------------------------------------------------|
B|---------------------------------------------------------------------------|
G|---------------------------------------------------------------------------|
D|--12~----------------------------------------------------------------------|
A|---------------------------------------------------------------------------|
E|---------------------------------------------------------------------------|

Guitar 2
e|---------------------------------------------------------------------------|
B|---------------------------------------------------------------------------|
G|--7~-----------------------------------------------------------------------|
D|---------------------------------------------------------------------------|
A|---------------------------------------------------------------------------|
E|---------------------------------------------------------------------------|






Verse 2:

Guitar 1
e|---------------------------------------------------------------------------|
B|---------------------------------------------------------------------------|
G|-------------------------10-------/14~-------------------------------------|
D|------------8-------12--------12-------------------------------------------|
A|--10-9-10-9----------------------------------------------------------------|
E|---------------------------------------------------------------------------|

Guitar 2
e|---------------------------------------------------------------------------|
B|---------------------------------------------------------------------------|
G|--------------------10---12---10---14~-------------------------------------|
D|------------12-------------------------------------------------------------|
A|---13-13-13----------------------------------------------------------------|
E|---------------------------------------------------------------------------|




Guitar 1
e|---------------------------------------------------------------------------|
B|---------------------------------------------------------------------------|
G|-------------------------10------------------------------------------------|
D|------------8-------12--------12-------------------------------------------|
A|--10-9-10-9----------------------------------------------------------------|
E|-----------------------------------11-10~----------------------------------|

Guitar 2
e|---------------------------------------------------------------------------|
B|---------------------------------------------------------------------------|
G|--------------------10-----------------------------------------------------|
D|------------12----------------12---8-\-7~----------------------------------|
A|---13-13-13----------------------------------------------------------------|
E|---------------------------------------------------------------------------|






Verse 3:

Guitar 1
e|---------------------------------------------------------------------------|
B|---------------------------------------------------------------------------|
G|----------------------------------------------10---------------------------|
D|--13--12--13----------10--12------13--12--13------13--12--12---------------|
A|--------------10--13-------------------------------------------------------|
E|---------------------------------------------------------------------------|

Guitar 2
e|---------------------------------------------------------------------------|
B|---------------------------------------------------------------------------|
G|--8---8---x-x---------x-x-7---x-x--8---8---x-x---------x-x-7-x-x-----------|
D|--8---8---x-x-5---5---x-x-7---x-x--8---8---x-x-5---5---x-x-7-x-x-----------|
A|--6---6---x-x-5---5---x-x-5---x-x--6---6---x-x-5---5---x-x-5-x-x-----------|
E|----------x-x-3---3---x-x-----x-x----------x-x-3---3---x-x---x-x-----------|




Guitar 1
e|---------------------------------------------------------------------------|
B|---------------------------------------------------------------------------|
G|---------------------------------------------------------------------------|
D|--13--12--13----------10--12------10~--------------------------------------|
A|--------------10--13-------------------------------------------------------|
E|---------------------------------------------------------------------------|

Guitar 2
e|---------------------------------------------------------------------------|
B|---------------------------------------------------------------------------|
G|--8---8---x-x---------x-x-7---7-7-5---5---5---5-5--------------------------|
D|--8---8---x-x-5---5---x-x-7---7-7-5---5---5---5-5-6---6---6---6-6----------|
A|--6---6---x-x-5---5---x-x-5---5-5-3---3---3---3-3-6---6---6---6-6----------|
E|----------x-x-3---3---x-x-------------------------4---4---4---4-4----------|






Chorus:

Guitar 1
e|---------------------------------------------------------------------------|
B|---------------------------------------------------------------------------|
G|----------5---------------3---------------10--9----------------------------|
D|------5-------5---3---3-------3---8---8------------------------------------|
A|---------------------------------------------------------------------------|
E|---------------------------------------------------------------------------|

Guitar 2
e|---------------------------------------------------------------------------|
B|---------------------------------------------------------------------------|
G|--5---5---5---5-5-3---3---3---3-3-8---8---8---10---------------------------|
D|--5---5---5---5-5-3---3---3---3-3-8---8---8---10---------------------------|
A|--3---3---3---3-3-1---1---1---1-1-6---6---6---8----------------------------|
E|---------------------------------------------------------------------------|




Guitar 1
e|---------------------------------------------------------------------------|
B|---------------------------------------------------------------------------|
G|----------5---------------3---------------8-/-10---------------------------|
D|------5-------5---3---3-------3---8---8------------------------------------|
A|---------------------------------------------------------------------------|
E|---------------------------------------------------------------------------|

Guitar 2
e|---------------------------------------------------------------------------|
B|---------------------------------------------------------------------------|
G|------5---5---5-5-3---3---3---3-3-8---8---8---10---------------------------|
D|------5---5---5-5-3---3---3---3-3-8---8---8---10---------------------------|
A|------3---3---3-3-1---1---1---1-1-6---6---6---8----------------------------|
E|---------------------------------------------------------------------------|





Fill:

Guitar 1
e|---------------------------------------------------------------------------|
B|---------------------------------------------------------------------------|
G|---------------------------------------------------------------------------|
D|---------------------------------------------------------------------------|
A|--2---2---2---2---2---2---2---2---2---2---2---2---2---2---2---2------------|
E|--1---1---1---1---1---1---1---1---1---1---1---1---1---1---1---1------------|

Guitar 2
e|---------------------------------------------------------------------------|
B|------0-------0-------0---0-----------0-------0-----------0----------------|
G|------4-------4-------4---4-/-5-------4-------4---4-\-2---0----------------|
D|----------------------------------------------------------0----------------|
A|--2-------2-------2---------------2-------2--------------------------------|
E|--1-------1-------1---------------1-------1--------------------------------|





Verse 4 (short):

Guitar 1
e|---------------------------------------------------------------------------|
B|---------------------------------------------------------------------------|
G|---------------------------------------------------------------------------|
D|----------2---------------6-----------7~-----------------------------------|
A|------3-------3-/-7---7-------7---0----------------------------------------|
E|---------------------------------------------------------------------------|

Guitar 2
e|---------------------------------------------------------------------------|
B|---------------------------------------------------------------------------|
G|---------------------------------------------------------------------------|
D|----------2----------------------------------------------------------------|
A|------3-------3-----------2-----------7~-----------------------------------|
E|------------------0---0-------0---5----------------------------------------|






Verse 4 (long):

Guitar 1
e|---------------------------------------------------------------------------|
B|---------------------------------------------------------------------------|
G|---------------------------------------------------------------------------|
D|----------2---------------6---------------7---------------9~---------------|
A|------3-------3-/-7---7-------7---0---0-------0---8---8--------------------|
E|---------------------------------------------------------------------------|

Guitar 2
e|---------------------------------------------------------------------------|
B|---------------------------------------------------------------------------|
G|----------------------------------------------------------4b5r4------------|
D|----------2-------------------------------------------3--------------------|
A|------3-------3-----------2---------------3--------------------------------|
E|------------------0---0-------0-3/5---5-------5---1------------------------|




Guitar 1
e|---------------------------------------------------------------------------|
B|---------------------------------------------------------------------------|
G|---------------------------------------------------------------------------|
D|----------2---------------6---------------7---------------9~---------------|
A|------3-------3-/-7---7-------7---0---0-------0---8---8--------------------|
E|---------------------------------------------------------------------------|

Guitar 2
e|---------------------------------------------------------------------------|
B|---------------------------------------------------------------------------|
G|----------------------------------------------------------4b5r4------------|
D|----------2-------------------------------------------3--------------------|
A|------3-------3-----------2---------------3--------------------------------|
E|------------------0---0-------0-3/5---5-------5---1------------------------|




Guitar 1
e|---------------------------------------------------------------------------|
B|---------------------------------------------------------------------------|
G|---------------------------------------------------------------------------|
D|----------2---------------6---------------7--------------------------------|
A|------3-------3-/-7---7-------7--------------------------------------------|
E|----------------------------------5---5------------------------------------|

Guitar 2
e|---------------------------------------------------------------------------|
B|---------------------------------------------------------------------------|
G|---------------------------------------------------------------------------|
D|----------2----------------------------------------------------------------|
A|------3-------3-----------2---------------7--------------------------------|
E|------------------0---0-------0---5---5------------------------------------|




Guitar 1
e|---------------------------------------------------------------------------|
B|---------------------------------------------------------------------------|
G|---------------------------------------------------------------------------|
D|----------2---------------6---------------7---------------9----------------|
A|------3-------3-/-7---7-------7---0---0-----------8---8-------8------------|
E|---------------------------------------------------------------------------|

Guitar 2
e|---------------------------------------------------------------------------|
B|---------------------------------------------------------------------------|
G|---------------------------------------------------------------------------|
D|----------2-----------------------------------------------9----------------|
A|------3-------3-----------2---------------3-------8---8-------8------------|
E|------------------0---0-------0---5---5------------------------------------|




Guitar 1
e|---------------------------------------------------------------------------|
B|---------------------------------------------------------------------------|
G|----------9---------------10------10--10--10--10---------------------------|
D|--8---8-------8---8---8-------8---8---8---8---8----------------------------|
A|---------------------------------------------------------------------------|
E|---------------------------------------------------------------------------|

Guitar 2
e|---------------------------------------------------------------------------|
B|---------------------------------------------------------------------------|
G|----------9---------------10--------------10-------------------------------|
D|--8---8-------8---8---8-------8---8---8-------8----------------------------|
A|---------------------------------------------------------------------------|
E|---------------------------------------------------------------------------|






Verse 5:

Guitar 1
e|---------------------------------------------------------------------------|
B|---------------------------------------------------------------------------|
G|--5---5---5---5---9---9---9---9--------------------------------------------|
D|--5---5---5---5---9---9---9---9---7---7---7---7---3---3---3---3------------|
A|--3---3---3---3---7---7---7---7---7---7---7---7---3---3---3---3------------|
E|--3---3---3---3---7---7---7---7---5---5---5---5---1---1---1---1------------|

Guitar 2
e|---------------------------------------------------------------------------|
B|---------------------------------------------------------------------------|
G|--5---5---5---5---9---9---9---9--------------------------------------------|
D|--5---5---5---5---9---9---9---9---7---7---7---7---3---3---3---3------------|
A|--3---3---3---3---7---7---7---7---7---7---7---7---3---3---3---3------------|
E|--3---3---3---3---7---7---7---7---5---5---5---5---1---1---1---1------------|




Guitar 1
e|---------------------------------------------------------------------------|
B|---------------------------------------------------------------------------|
G|---------------------------------------------------------------------------|
D|--7---7---7---7---6---6---6---6--------------------------------------------|
A|--7---7---7---7---6---6---6---6--------------------------------------------|
E|--5---5---5---5---4---4---4---4--------------------------------------------|

Guitar 2
e|---------------------------------------------------------------------------|
B|---------------------------------------------------------------------------|
G|---------------------------------------------------------------------------|
D|--7---7---7---7---6---6---6---6--------------------------------------------|
A|--7---7---7---7---6---6---6---6--------------------------------------------|
E|--5---5---5---5---4---4---4---4--------------------------------------------|






Song order: 

intro                   x1
verse 1 (pt.1)          x4
verse 1 (pt.2)          x1
verse 1 (pt.1)          x4
verse 2                 x2
verse 3                 x1
chorus                  x2
verse 4 (short)         x1

pause (bass only)

verse 1 (pt.2)          x1
verse 1 (pt.1)          x4
verse 2                 x2
verse 3                 x1
chorus                  x2
fill                    x1
verse 4 (long)          x1
verse 5                 x6
verse 4 (short)         x1



Notes:

If you have any corrections, please tell me in the comments section. Also, please be polite.
Live version contain a few different details.
This tab was done on Matt's playing. Devin may play it slightly differently.

************************************

| /   slide up
| \   slide down
| h   hammer-on
| p   pull-off
| ~   vibrato
| +   harmonic
| x   Mute note
| b   Bend
| pb  Pre-bend
| br  Bend release
| pbr Pre-bend release
| brb Bend release bend

************************************
Добавлено: 22.06.2015
Другие материалы по этой песне:
  • Аккорды и текст

Страница создана 22.06.2015
http://primanota.ru/speedy-ortiz/cash-cab-chords.htm
Привет, Гость.
Предлагаем пройти революционный курс по гитаре.
Подарок от PrimaNota.Ru, забирай!