PrimaNota.ru - самый крупный в мире бесплатный архив песенных текстов, аккордов, табулатур и нот


Speedy Ortiz - Everythings Bigger - таба, видео

Регистрация Запомнить меня
Войти через:  Facebook Google Twitter Vk Yandex Mail.ru

Speedy Ortiz - Everythings Bigger - таба, видео

Печатать
Просмотров: 131
-------------------------------------------------------------------------------
                  Everything's Bigger - Speedy Ortiz
-------------------------------------------------------------------------------
Tabbed by: marceloargh
Tuning: Drop d (DADGBe)


Guitar 1 - Sadie (left ear)
Guitar 2 - Matt (right ear)



intro:

Guitar 1
e|---------------------------------------------------------------------------|
B|---------------------------------------------------------------------------|
G|--12-\11--11\-9---9-/-11--11\-7---7-------7-\-4---4-------4----------------|
D|---------------------------------------------------------------------------|
A|--10-\9---9-\-7---7-/-9---9-\-5---5-------5-\-2---2-------2----------------|
D|---------------------------------------------------------------------------|

Guitar 2
e|---------------------------------------------------------------------------|
B|---------------------------------------------------------------------------|
G|----------9---------------7-------------------------------4----------------|
D|--12--12-------------------------------------------------------------------|
A|------------------------------------------------------5--------------------|
D|------------------10--10----------9---10--9-\-7---5------------------------|




Guitar 1
e|---------------------------------------------------------------------------|
B|---------------------------------------------------------------------------|
G|----------4-/-5---5---5---5---5--------------------------------------------|
D|---------------------------------------------------------------------------|
A|----------2-/-3---3---3---3---3--------------------------------------------|
D|---------------------------------------------------------------------------|

Guitar 2
e|---------------------------------------------------------------------------|
B|---------------------------------------------------------------------------|
G|------------------2-0h2p0--------------------------------------------------|
D|--------------------------3---2--------------------------------------------|
A|----------5----------------------------------------------------------------|
D|------5-------5------------------------------------------------------------|




Guitar 1
e|---------------------------------------------------------------------------|
B|---------------------------------------------------------------------------|
G|--12-\11--11\-9---9-/-11--11\-7---7-------7-\-4---4-------4----------------|
D|---------------------------------------------------------------------------|
A|--10-\9---9-\-7---7-/-9---9-\-5---5-------5-\-2---2-------2----------------|
D|---------------------------------------------------------------------------|

Guitar 2
e|---------------------------------------------------------------------------|
B|---------------------------------------------------------------------------|
G|----------9---------------7-------------------------------4----------------|
D|--0------------------------------------------------------------------------|
A|------------------------------------------------------5--------------------|
D|------------------10--------------9---10--9-\-7---5------------------------|




Guitar 1
e|---------------------------------------------------------------------------|
B|---------------------------------------------------------------------------|
G|----------4-/-5---5---5---5---5--------------------------------------------|
D|---------------------------------------------------------------------------|
A|----------2-/-3---3---3---3---3--------------------------------------------|
D|---------------------------------------------------------------------------|

Guitar 2
e|---------------------------------------------------------------------------|
B|---------------------------------------------------------------------------|
G|----------4-------2-0h2p0--------------------------------------------------|
D|--------------------------3---2--------------------------------------------|
A|---------------------------------------------------------------------------|
D|------5-------5------------------------------------------------------------|




Guitar 1
e|---------------------------------------------------------------------------|
B|---------------------------------------------------------------------------|
G|--12-\11--11\-9---9-/-14--14-\12--12------12\-7---7-------7----------------|
D|---------------------------------------------------------------------------|
A|--10-\9---9-\-7---7-/-12--12-\10--10------10\-5---5-------5----------------|
D|---------------------------------------------------------------------------|

Guitar 2
e|---------------------------------------------------------------------------|
B|---------------------------------------------------------------------------|
G|----------9---------------7-------------------------------4----------------|
D|--0------------------------------------------------------------------------|
A|------------------------------------------------------5--------------------|
D|------------------10--------------9---10--9-\-7---5------------------------|




Guitar 1
e|---------------------------------------------------------------------------|
B|---------------------------------------------------------------------------|
G|----------7-/-10--10--10--10--10-------------------------------------------|
D|---------------------------------------------------------------------------|
A|----------5-/-8---8---8---8---8--------------------------------------------|
D|---------------------------------------------------------------------------|

Guitar 2
e|---------------------------------------------------------------------------|
B|---------------------------------------------------------------------------|
G|----------4-------2-0h2p0--------------------------------------------------|
D|--------------------------3---2--------------------------------------------|
A|---------------------------------------------------------------------------|
D|------5-------5------------------------------------------------------------|






verse:

Guitar 1
e|---------------------------------------------------------------------------|
B|---------------------------------------------------------------------------|
G|------------------5-----------4---0-------0-------0------------------------|
D|------4-----5/7-------7---------------4-------3-------4---0----------------|
A|--5-------5----------------------------------------------------------------|
D|---------------------------------------------------------------------------|

Guitar 2
e|---------------------------------------------------------------------------|
B|---------------------------------------------------------------------------|
G|---------------------------------------------------------------------------|
D|---------------------------------------------------------------------------|
A|---------------------------------------------------------------------------|
D|---------------------------------------------------------------------------|


(last verse before first chorus:)

Guitar 1
e|---------------------------------------------------------------------------|
B|---------------------------------------------------------------------------|
G|------------------5-----------4---0-------0-------0------------------------|
D|------4-----5/7-------7---------------4-------3-------4---0----------------|
A|--5-------5---------------------------------------------------3------------|
D|--------------------------------------------------------------3------------|

Guitar 2
e|---------------------------------------------------------------------------|
B|---------------------------------------------------------------------------|
G|---------------------------------------------------------------------------|
D|---------------------------------------------------------------------------|
A|---------------------------------------------------------------------------|
D|---------------------------------------------------------------------------|






chorus 1:

Guitar 1
e|---------------------------------------------------------------------------|
B|----------------------------------------------------------0----------------|
G|----------9---------------7---------------7---------------4----------------|
D|---------------------------------------------------------------------------|
A|------9-------9-------9-------9-------9-------9-------5--------------------|
D|--0---------------10--------------9---------------5------------------------|

Guitar 2
e|---------------------------------------------------------------------------|
B|---------------------------------------------------------------------------|
G|----------9---------------7-------------------------------4----------------|
D|---------------------------------------------------------------------------|
A|------9-------9-------9-------9-----------------------5--------------------|
D|--0---------------10--------------9---10--9---7---5------------------------|




Guitar 1
e|---------------------------------------------------------------------------|
B|---------------------------------------------------------------------------|
G|--------------------0h2p0--------------------------------------------------|
D|----------4---------------3---2--------------------------------------------|
A|---------------------------------------------------------------------------|
D|------5-----------3--------------------------------------------------------|

Guitar 2
e|---------------------------------------------------------------------------|
B|---------------------------------------------------------------------------|
G|------------------2-0h2p0--------------------------------------------------|
D|----------4---------------3---2--------------------------------------------|
A|---------------------------------------------------------------------------|
D|------5-------5------------------------------------------------------------|






bridge 1:

Guitar 1
e|----------2-------------------------------8--------------------------------|
B|------3-------3-------5---7---8-3/10---------------------------------------|
G|----------------3/5--------------------------------------------------------|
D|--0------------------------------------------------------------------------|
A|---------------------------------------------------------------------------|
D|---------------------------------------------------------------------------|

Guitar 2
e|---------------------------------------------------------------------------|
B|---------------------------------------------------------------------------|
G|--7---7---7---7---5---5---5---5--------------------------------------------|
D|--7---7---7---7---5---5---5---5---3-------3--------------------------------|
A|--5---5---5---5---3---3---3---3---3-------3--------------------------------|
D|--0---0---0---0-------------------3-------3--------------------------------|




Guitar 1
e|----------2----------------------------------------------------------------|
B|------3-------3-------5---7---8-----------8--------------------------------|
G|----------------3/5-----------------------10-------------------------------|
D|---------------------------------------------------------------------------|
A|---------------------------------------------------------------------------|
D|---------------------------------------------------------------------------|

Guitar 2
e|---------------------------------------------------------------------------|
B|---------------------------------------------------------------------------|
G|--7---7---7---7---5---5---5---5--------------------------------------------|
D|--7---7---7---7---5---5---5---5-----------3--------------------------------|
A|--5---5---5---5---3---3---3---3-----------3--------------------------------|
D|--0---0---0---0---------------------------3--------------------------------|




Guitar 1
e|----------2----------------------------------------------------------------|
B|------3-------3-------5---7---8--------------------------------------------|
G|----------------3/5--------------------------------------------------------|
D|---------------------------------------------------------------------------|
A|---------------------------------------------------------------------------|
D|---------------------------------------------------------------------------|

Guitar 2
e|---------------------------------------------------------------------------|
B|---------------------------------------------------------------------------|
G|--7---7---7---7---5---5---5---5--------------------------------------------|
D|--7---7---7---7---5---5---5---5--------------------------------------------|
A|--5---5---5---5---3---3---3---3--------------------------------------------|
D|--0---0---0---0------------------------------------------------------------|






verse 2:

Guitar 1
e|---------------------------------------------------------------------------|
B|---------------------------------------------------------------------------|
G|------------------5-----------4---0-------0-------0------------------------|
D|------4-----5/7-------7---------------4-------3-------4---0----------------|
A|--5-------5----------------------------------------------------------------|
D|---------------------------------------------------------------------------|

Guitar 2
e|---------------------------------------------------------------------------|
B|---------------------------------------------------------------------------|
G|------------------5-------5---4---0-------0---2---0------------------------|
D|------4-----5/7-------7---------------4---------------4---0----------------|
A|--5-------5----------------------------------------------------------------|
D|---------------------------------------------------------------------------|






bridge 2:

Guitar 2
e|---------------------------------------------------------------------------|
B|----------------------------------------------------------1----------------|
G|--4-------2---4---6-------4---6---7-\-5-\-3-/-5---2-----------2------------|
D|---------------------------------------------------------------------------|
A|---------------------------------------------------------------------------|
D|---------------------------------------------------------------------------|

Guitar 2
e|---------------------------------------------------------------------------|
B|---------------------------------------------------------------------------|
G|--4---4---4---4---6---6---6---6---7---7---7---7---2---2---2---2------------|
D|--0---0---0---0---0---0---0---0---0---0---0---0---0---0---0---0------------|
A|--5---5---5---5---7---7---7---7---8---8---8---8---3---3---3---3------------|
D|--5---5---5---5---7---7---7---7---8---8---8---8---3---3---3---3------------|




Guitar 1
e|---------------------------------------------------------------------------|
B|---------------------------------------------------------------------------|
G|----------0---------------1-h-2--------------------------------------------|
D|--5-/-7-------7-------0----------------------------------------------------|
A|----------------------------------1---1---1---1---1---1---1---1------------|
D|------------------0---------------1---1---1---1---1---1---1---1------------|

Guitar 2
e|---------------------------------------------------------------------------|
B|----------3---------------3---------------3---------------3----------------|
G|---------------------------------------------------------------------------|
D|--1---1-------1---0---0-------0---1---1-------1---1---1-------1------------|
A|--1---1-------1---0---0-------0---1---1-------1---1---1-------1------------|
D|--1---1-------1---0---0-------0---1---1-------1---1---1-------1------------|






break:

Guitar 1
e|---------------------------------------------------------------------------|
B|---------------------------------------------------------------------------|
G|---------------------------------------------------------------------------|
D|---------------------------------------------------------------------------|
A|---------------------------------------------------------------------------|
D|-+12-----------------------------------------------------+5----------------|

Guitar 2
e|---------------------------------------------------------------------------|
B|---------------------------------------------------------------------------|
G|----------9---------------7-------------------------------4----------------|
D|---------------------------------------------------------------------------|
A|------9-------9-------9-------9-----------------------5--------------------|
D|--0---------------10--------------9---10--9---7---5------------------------|




Guitar 1
e|---------------------------------------------------------------------------|
B|---------------------------------------------------------------------------|
G|---------------------------------------------------------------------------|
D|---------------------------------------------------------------------------|
A|---------------------------------------------------------------------------|
D|---------------------------------------------------------------------------|

Guitar 2
e|---------------------------------------------------------------------------|
B|---------------------------------------------------------------------------|
G|------------------2-0h2p0--------------------------------------------------|
D|----------4---------------3---2--------------------------------------------|
A|---------------------------------------------------------------------------|
D|------5-------5------------------------------------------------------------|






outro/ending:

Guitar 1
e|---------------------------------------------------------------------------|
B|---------------------------------------------------------------------------|
G|--12-\11--11\-9---9-/-11--11\-7---7-------7-\-4---4-------4----------------|
D|---------------------------------------------------------------------------|
A|--10-\9---9-\-7---7-/-9---9-\-5---5-------5-\-2---2-------2----------------|
D|---------------------------------------------------------------------------|

Guitar 2
e|---------------------------------------------------------------------------|
B|---------------------------------------------------------------------------|
G|----------9---------------7-------------------------------4----------------|
D|---------------------------------------------------------------------------|
A|------9-------9-------9-------9-----------------------5--------------------|
D|--0---------------10--------------9---10--9---7---5------------------------|




Guitar 1
e|---------------------------------------------------------------------------|
B|---------------------------------------------------------------------------|
G|--12-\11--11\-9---9-/-11--11\-7---7-------7-\-4---4-------4----------------|
D|---------------------------------------------------------------------------|
A|--10-\9---9-\-7---7-/-9---9-\-5---5-------5-\-2---2-------2----------------|
D|---------------------------------------------------------------------------|

Guitar 2
e|---------------------------------------------------------------------------|
B|---------------------------------------------------------------------------|
G|----------9---------------7-------------------------------4----------------|
D|---------------------------------------------------------------------------|
A|------9-------9-------9-------9-----------------------5--------------------|
D|--0---------------10--------------9---10--9---7---5------------------------|




Guitar 1
e|---------------------------------------------------------------------------|
B|---------------------------------------------------------------------------|
G|--12-\11--11\-9---9-/-14--14-\12--12------12\-7---7-------7----------------|
D|---------------------------------------------------------------------------|
A|--10-\9---9-\-7---7-/-12--12-\10--10------10\-5---5-------5----------------|
D|---------------------------------------------------------------------------|

Guitar 2
e|---------------------------------------------------------------------------|
B|---------------------------------------------------------------------------|
G|----------9---------------7-------------------------------4----------------|
D|---------------------------------------------------------------------------|
A|------9-------9-------9-------9-----------------------5--------------------|
D|--0---------------10--------------9---10--9---7---5------------------------|




Guitar 1
e|---------------------------------------------------------------------------|
B|----------0----------------------------------------------------------------|
G|----------4---------------2------------------------------------------------|
D|--0-------0---0---0-------0---0-----------0---------------3---0---0--------|
A|--5-------5---5-\-3-------3---3-------1---1-----------0-----------1--------|
D|--5-------5---5-\-3-------3---3---1-------1---1---0---------------1--------|

Guitar 2
e|---------------------------------------------------------------------------|
B|---------------------------------------------------------------------------|
G|---------------------------------------------------------------------------|
D|--0-------0-------0-------0-------0-------0-------0-------0-------0--------|
A|--5-------5-------3-------3-------1-------1-------0-------0-------1--------|
D|--5-------5-------3-------3-------1-------1-------0-------0-------1--------|



Notes:

If you have any corrections, please tell me in the comments section. Also, please be polite.
Live version contain a few different details.
This tab was done on Matt's playing. Devin plays it slightly different.


************************************

| /   slide up
| \   slide down
| h   hammer-on
| p   pull-off
| ~   vibrato
| +   harmonic
| x   Mute note
| b   Bend
| pb  Pre-bend
| br  Bend release
| pbr Pre-bend release
| brb Bend release bend

************************************
Добавлено: 22.06.2015
Другие материалы по этой песне:
  • Аккорды и текст

Страница создана 22.06.2015
http://primanota.ru/speedy-ortiz/everythings-bigger-chords.htm
Привет, Гость.
Предлагаем пройти революционный курс по гитаре.
Подарок от PrimaNota.Ru, забирай!