PrimaNota.ru - самый крупный в мире бесплатный архив песенных текстов, аккордов, табулатур и нот


Shadows - Fender Bender - бас-таба, видео

Регистрация Запомнить меня
Войти через:  Facebook Google Twitter Vk Yandex Mail.ru

Shadows - Fender Bender - бас-таба, видео

Печатать
Просмотров: 124
s/shadows/Fender_bender.btab

Basstab by Jan Bjorklund, Finland  jani_bjorklund@yahoo.se>
You are welcome to request for basstabs!
Bienvenidos a pedirme transcripciones para el bajo!
Fingering and positions as suggested by TablEdit. 

TablEdited by Jan Bjorklund
Tuning : E A D G 	Time Signature: 4/4

 |       |       |       |        |       |       |       |        
|2---0---------------------------|--------------------------------|
|--------4---2-------------------|--------------------------------|
|----------------2---0-----------|--------------------------------|
|------------------------2---0---|--------------------------------|

 |       |       |       |        |       |       |       |        
|--------------------------------|--------------------------------|
|--------------------------------|----------------0-------0---2---|
|0-----------0-----------0-------|3-------3---3-------------------|
|----------------0---------------|--------------------------------|

 |       |       |       |        |       |       |       |        
|--------------------------------|--------------------------------|
|--------------------------------|--------------------------------|
|0-----------0-------------------|0-----------0-------------------|
|----------------0-------3---4---|----------------0---0---3---4---|

 |       |       |       |        |       |       |       |        
|--------------------------------|--------------------------------|
|--------------------------------|----------------0-------0---2---|
|0-----------0-----------0---2---|3-------3---3-------------------|
|----------------0---------------|--------------------------------|

 |       |       |       |        |       |       |       |        
|--------------------------------|--------------------------------|
|--------------------------------|--------------------------------|
|0-------0---0-------------------|0-----------0-------------------|
|----------------0---0---3---4---|----------------0---0---3---4---|

 |       |       |       |        |       |       |       |        
|----------------------------0---|----0---------------------------|
|----------------2-------4-------|--------4-------2---------------|
|0---0---4-----------------------|------------------------4---4---|
|--------------------------------|--------------------------------|

 |       |       |       |        |       |       |       |        
|----------------2-------4---5---|----5---4-------2---------------|
|--------4-----------------------|------------------------4-------|
|5---5---------------------------|----------------------------5---|
|--------------------------------|--------------------------------|

 |       |       |       |        |       |       |       |        
|--------------------------------|--------------------------------|
|3---3-------------------3---0---|2---2---------------------------|
|--------0-------3---------------|--------2-------------------0---|
|--------------------------------|----------------3---0---3-------|

 |       |       |       |        |       |       |       |        
|--------------------------------|--------------------------------|
|----------------2---2---4-------|----------------2---2---4-------|
|----0---4-------------------0---|----0---4-----------------------|
|--------------------------------|--------------------------------|

 |       |       |       |        |       |       |       |        
|----------------------------0---|----0---------------------------|
|----------------2---2---4-------|--------4-------2---------------|
|0---0---4-----------------------|------------------------4---4---|
|--------------------------------|--------------------------------|

 |       |       |       |        |       |       |       |        
|----------------2-------4---5---|----5---4-------2---------------|
|--------4-----------------------|------------------------4-------|
|5---5---------------------------|----------------------------5---|
|--------------------------------|--------------------------------|

 |       |       |       |        |       |       |       |        
|--------------------------------|--------------------------------|
|3---3-------------------3---0---|2---2---------------------------|
|--------0-------3---------------|--------2-------------------0---|
|--------------------------------|----------------3---0---3-------|

 |       |       |       |        |       |       |       |        
|--------------------------------|--------------------------------|
|----------------1---------------|----------------1---------------|
|--------0---0-------------------|0-------0---0-------------------|
|------------------------3---4---|------------------------3---4---|

 |       |       |       |        |       |       |       |        
|--------------------------------|--------------------------------|
|--------------------------------|----------------0-------0---2---|
|0-------0---0-----------0---2---|3-------3---3-------------------|
|----------------0---0-----------|--------------------------------|

 |       |       |       |        |       |       |       |        
|--------------------------------|--------------------------------|
|--------------------------------|--------------------------------|
|0-------0---0-------------------|0-----------0-------------------|
|----------------0-------3---4---|----------------0---0---3---4---|

 |       |       |       |        |       |       |       |        
|--------------------------------|--------------------------------|
|--------------------------------|----------------0-------0---2---|
|0-----------0-----------0---2---|3-------3---3-------------------|
|----------------0---------------|--------------------------------|

 |       |       |       |        |       |       |       |        
|--------------------------------|--------------------------------|
|--------------------------------|--------------------------------|
|0-------0---0-------------------|0-----------0-------------------|
|----------------0---0---3---4---|----------------0---0---3---4---|

 |       |       |       |        |       |       |       |        
|----------------------------0---|----0---------------------------|
|----------------2-------4-------|--------4-------2---------------|
|0---0---4-----------------------|--------------------0---2---4---|
|--------------------------------|--------------------------------|

 |       |       |       |        |       |       |       |        
|----------------2-------4---5---|----5---4-------2---------------|
|--------4-----------------------|------------------------4-------|
|5---5---------------------------|----------------------------5---|
|--------------------------------|--------------------------------|

 |       |       |       |        |       |       |       |        
|--------------------------------|--------------------------------|
|3---3-------------------3---0---|2---2---------------------------|
|--------0-------3---------------|--------2-------------------0---|
|--------------------------------|----------------3---0---3-------|

 |       |       |       |        |       |       |       |        
|--------------------------------|--------------------------------|
|----------------1---1-----------|----------------------------2---|
|--------0---0-------------------|0-------0---0---0---2---4-------|
|------------------------3---4---|--------------------------------|

 |       |       |       |        |       |       |       |        
|--------------------------------|--------------------------------|
|3---3---3---3---3---3---3---3---|3---3---3---3---3---3---3---3---|
|--------------------------------|--------------------------------|
|--------------------------------|--------------------------------|

 |       |       |       |        |       |       |       |        
|2---2---2---2---2---2---2---2---|2---2---2---2---2---2---2---2---|
|--------------------------------|--------------------------------|
|--------------------------------|--------------------------------|
|--------------------------------|--------------------------------|

 |       |       |       |        |       |       |       |        
|--------------------------------|--------------------------------|
|3---3---3---3---3---3---3---3---|3---3---3---3---3---3---3---3---|
|--------------------------------|--------------------------------|
|--------------------------------|--------------------------------|

 |       |       |       |        |       |       |       |        
|--------------------------------|--------------------------------|
|--------------------------------|--------------------------------|
|3---3---3---3---3---3---3---3---|3---3---3---3---3---3---3---3---|
|--------------------------------|--------------------------------|

 |       |       |       |        |       |       |       |        
|--------------------------------|--------------------------------|
|3-----------3---2-----------2---|0-----------0-------------------|
|--------------------------------|----------------3-----------3---|
|--------------------------------|--------------------------------|

 |       |       |       |        |       |       |       |        
|--------------------------------|--------------------------------|
|--------------------------------|--------------------------------|
|1-----------1---0-----------0---|1-----------1---0-----------0---|
|--------------------------------|--------------------------------|

 |       |       |       |        |       |       |       |        
|--------------------------------|--------------------------------|
|3-----------3---2-----------2---|0-----------0-------------------|
|--------------------------------|----------------3-----------3---|
|--------------------------------|--------------------------------|

 |       |       |       |        |       |       |       |        
|--------------------------------|--------------------------------|
|--------------------------------|2---2---2---2---2---2---2---2---|
|------------2-------------------|--------------------------------|
|3---------------0-----------0---|--------------------------------|

 |       |       |       |        |       |       |       |        
|--------------------------------|--------------------------------|
|--------------------------------|----------------0-------0---2---|
|0-------0---0-----------0---2---|3-------3---3-------------------|
|----------------0---0-----------|--------------------------------|

 |       |       |       |        |       |       |       |        
|--------------------------------|--------------------------------|
|--------------------------------|--------------------------------|
|0-------0---0-------------------|0-----------0-------------------|
|----------------0-------3---4---|----------------0---0---3---4---|

 |       |       |       |        |       |       |       |        
|--------------------------------|--------------------------------|
|--------------------------------|----------------0-------0---2---|
|0-----------0-----------0---2---|3-------3---3-------------------|
|----------------0---------------|--------------------------------|

 |       |       |       |        |       |       |       |        
|--------------------------------|--------------------------------|
|--------------------------------|--------------------------------|
|0-------0---0-------------------|0-----------0-------------------|
|----------------0---0---3---4---|----------------0---0---3---4---|

 |       |       |       |        |       |       |       |        
|----------------------------0---|----0---------------------------|
|----------------2-------4-------|--------4-------2---------------|
|0---0---4-----------------------|--------------------0---2---4---|
|--------------------------------|--------------------------------|

 |       |       |       |        |       |       |       |        
|----------------2-------4---5---|----5---4-------2---------------|
|--------4-----------------------|------------------------4-------|
|5---5---------------------------|----------------------------5---|
|--------------------------------|--------------------------------|

 |       |       |       |        |       |       |       |        
|--------------------------------|--------------------------------|
|3---3-------------------3---0---|2---2---------------------------|
|--------0-------3---------------|--------2-------------------0---|
|--------------------------------|----------------3---0---3-------|

 |       |       |       |        |       |       |       |        
|--------------------------------|--------------------------------|
|----------------1---1-----------|--------------------------------|
|--------0---0-------------------|0-------0---0-------------------|
|------------------------3---4---|----------------0-------3---4---|

 |       |       |       |        |       |       |       |        
|--------------------------------|--------------------------------|
|--------------------------------|--------------------------------|
|0-------------------------------|--------------------------------|
|--------------------------------|--------------------------------|

 |       |       |       |        |       |       |       |        
|--------------------------------|--------------------------------|
|--------------------------------|--------------------------------|
|--------------------------------|--------------------------------|
|--------------------------------|--------------------------------|

 |       |       |       |        |       |       |       |        
|--------------------------------|--------------------------------|
|--------------------------------|--------------------------------|
|--------------------------------|--------------------------------|
|--------------------------------|--------------------------------|

 |       |       |       |        |       |       |       |        
|2---0---------------------------|--------------------------------|
|--------4---2-------------------|--------------------------------|
|----------------2---0-----------|--------------------------------|
|------------------------2---0---|--------------------------------|

 |       |       |       |        |       |       |       |        
|--------------------------------|--------------------------------|
|3---3---3---3---3---3---3---3---|3---3---3---3---3---3---3---3---|
|--------------------------------|--------------------------------|
|--------------------------------|--------------------------------|

 |       |       |       |        |       |       |       |        
|2---2---2---2---2---2---2---2---|2---2---2---2---2---2---2---2---|
|--------------------------------|--------------------------------|
|--------------------------------|--------------------------------|
|--------------------------------|--------------------------------|

 |       |       |       |        |       |       |       |        
|--------------------------------|--------------------------------|
|3---3---3---3---3---3---3---3---|3---3---3---3---3---3---3---3---|
|--------------------------------|--------------------------------|
|--------------------------------|--------------------------------|

 |       |       |       |        |       |       |       |        
|--------------------------------|--------------------------------|
|--------------------------------|--------------------------------|
|3---3---3---3---3---3---3---3---|3---3---3---3---3---3---3---3---|
|--------------------------------|--------------------------------|

 |       |       |       |        |       |       |       |        
|--------------------------------|--------------------------------|
|3-----------3---2-----------2---|0-----------0-------------------|
|--------------------------------|----------------3-----------3---|
|--------------------------------|--------------------------------|

 |       |       |       |        |       |       |       |        
|--------------------------------|--------------------------------|
|--------------------------------|--------------------------------|
|1-----------1---0-----------0---|1-----------1---0-----------0---|
|--------------------------------|--------------------------------|

 |       |       |       |        |       |       |       |        
|--------------------------------|--------------------------------|
|3-----------3---2-----------2---|0-----------0-------------------|
|--------------------------------|----------------3-----------3---|
|--------------------------------|--------------------------------|

 |       |       |       |        |       |       |       |        
|--------------------------------|--------------------------------|
|--------------------------------|2---2---2---2---2---2---2---2---|
|------------2-------------------|--------------------------------|
|3---------------0-----------0---|--------------------------------|

 |       |       |       |        |       |       |       |        
|--------------------------------|--------------------------------|
|------------------------0-------|----------------0---0-----------|
|--------0---0---3---3-------3---|--------2---2-----------2-------|
|1-------------------------------|3---------------------------3---|

 |       |       |       |        |       |       |       |        
|--------------------------------|--------------------------------|
|------------------------0-------|----------------0---0-----------|
|--------0---0---3---3-------3---|--------2---2-----------2-------|
|1-------------------------------|3---------------------------3---|

 |       |       |       |        |       |       |       |        
|--------------------------------|0---0---------------------------|
|------------------------0-------|--------2---2---0---0-----------|
|--------0---0---3---3-------3---|------------------------2---2---|
|1-------------------------------|--------------------------------|

 |       |       |       |        |       |       |       |        
|--------------------------------|--------------------------------|
|--------------------------------|----------------0-------0---2---|
|0-------0---0-----------0---2---|3-------3---3-------------------|
|----------------0---0-----------|--------------------------------|

 |       |       |       |        |       |       |       |        
|--------------------------------|--------------------------------|
|--------------------------------|--------------------------------|
|0-------0---0-------------------|0-----------0-------------------|
|----------------0-------3---4---|----------------0---0---3---4---|

 |       |       |       |        |       |       |       |        
|--------------------------------|--------------------------------|
|--------------------------------|----------------0-------0---2---|
|0-----------0-----------0---2---|3-------3---3-------------------|
|----------------0---------------|--------------------------------|

 |       |       |       |        |       |       |       |        
|--------------------------------|--------------------------------|
|--------------------------------|--------------------------------|
|0-------0---0-------------------|0-----------0-------------------|
|----------------0---0---3---4---|----------------0---0---3---4---|

 |       |       |       |        |       |       |       |        
|----------------------------0---|----0---------------------------|
|----------------2-------4-------|--------4-------2---------------|
|0---0---4-----------------------|--------------------0---2---4---|
|--------------------------------|--------------------------------|

 |       |       |       |        |       |       |       |        
|----------------2-------4---5---|----5---4-------2---------------|
|--------4-----------------------|------------------------4-------|
|5---5---------------------------|----------------------------5---|
|--------------------------------|--------------------------------|

 |       |       |       |        |       |       |       |        
|--------------------------------|--------------------------------|
|3---3-------------------3---0---|2---2---------------------------|
|--------0-------3---------------|--------2-------------------0---|
|--------------------------------|----------------3---0---3-------|

 |       |       |       |        |       |       |       |        
|--------------------------------|--------------------------------|
|----------------1---1-----------|--------------------------------|
|--------0---0-------------------|0-------------------------------|
|------------------------3---4---|----0---3---0---3---0---3---0---|

 |       |       |       |        |       |       |       |        
|--------------------------------|--------------------------------|
|--------------------------------|--------------------------------|
|0-------------------------------|--------------------------------|
|--------------------------------|--------------------------------|

 |       |       |       |        |       |       |       |        
|--------------------------------|--------------------------------|
|--------------------------------|--------------------------------|
|--------------------------------|--------------------------------|
|--------------------------------|--------------------------------|

 |       |       |       |        |       |       |       |        
|--------------------------------|--------------------------------|
|--------------------------------|--------------------------------|
|--------------------------------|--------------------------------|
|--------------------------------|--------------------------------|

 |       |       |       |        |       |       |       |        
|2---0---------------------------|--------------------------------|
|--------4---2-------------------|--------------------------------|
|----------------2---0-----------|--------------------------------|
|------------------------2---0---|--------------------------------|

 |       |       |       |        |       |       |       |        
|--------------------------------|--------------------------------|
|--------------------------------|--------------------------------|
|--------------------------------|--------------------------------|
|------------------------0---0---|--------0---0-----------0---0---|

 |       |       |       |        |       |       |       |        
|--------------------------------|--------------------------------|
|--------------------------------|--------------------------------|
|--------------------------------|--------------------------------|
|--------0---0-----------0---0---|--------0---0-----------0---0---|

 |       |       |       |        |       |       |       |        
|--------------------------------|--------------------------------|
|--------------------------------|--------------------------------|
|--------------------------------|--------------------------------|
|--------0---0-----------0---0---|--------0---0-----------0---0---|

 |       |       |       |        |       |       |       |        
|--------------------------------|--------------------------------|
|--------------------------------|--------------------------------|
|--------------------------------|--------------------------------|
|--------0---0-----------0---0---|--------0---0-----------0---0---|

 |       |       |       |        |       |       |       |        
|--------------------------------|--------------------------------|
|--------------------------------|--------------------------------|
|--------------------------------|--------------------------------|
|--------0---0-----------0---0---|--------0---0-----------0---0---|

 |       |       |       |        |       |       |       |        
|--------------------------------|--------------------------------|
|--------------------------------|--------------------------------|
|--------------------------------|--------------------------------|
|--------0---0-----------0---0---|--------0---0-----------0---0---|

 |       |       |       |        |       |       |       |        
|--------------------------------|--------------------------------|
|--------------------------------|--------------------------------|
|--------------------------------|--------------------------------|
|--------0---0-----------0---0---|--------0---0-----------0---0---|

 |       |       |       |        |       |       |       |        
|--------------------------------|--------------------------------|
|--------------------------------|--------------------------------|
|--------------------------------|--------------------------------|
|--------0---0-----------0---0---|--------0---0-----------0---0---|

 |       |       |       |        |       |       |       |        
|--------------------------------|--------------------------------|
|--------------------------------|--------------------------------|
|--------------------------------|--------------------------------|
|--------0---0-----------0---0---|--------0---0-----------0---0---|

 |       |       |       |        |       |       |       |        
|--------------------------------|--------------------------------|
|--------------------------------|--------------------------------|
|--------------------------------|--------------------------------|
|--------0---0-----------0---0---|--------0---0-----------0---0---|

 |       |       |       |        |       |       |       |        
|--------------------------------|--------------------------------|
|--------------------------------|--------------------------------|
|--------------------------------|--------------------------------|
|--------0---0-----------0---0---|--------------------------------|


Created with TablEdit http://www.tabledit.com/

............................................................
     
Добавлено: 10.09.2013
Другие материалы по этой песне:
  • Аккорды и текст

Страница создана 10.09.2013
http://primanota.ru/shadows/fender-bender-chords.htm
Привет, Гость.
Предлагаем пройти революционный курс по гитаре.
Подарок от PrimaNota.Ru, забирай!