PrimaNota.ru - самый крупный в мире бесплатный архив песенных текстов, аккордов, табулатур и нот


Shadows - Friends - бас-таба, видео

Регистрация Запомнить меня
Войти через:  Facebook Google Twitter Vk Yandex Mail.ru

Shadows - Friends - бас-таба, видео

Печатать
Просмотров: 76
Уроки эстрадного вокала в Санкт-Петербурге
s/shadows/Friends.btab

Basstab by Jan Bjorklund, Finland  jani_bjorklund@yahoo.se>
You are welcome to request for basstabs!
Bienvenidos a pedirme transcripciones para el bajo!
Fingering and positions as suggested by TablEdit. 

TablEdited by Jan Bjorklund
Tuning : E A D G 	Time Signature: 4/4

 |       |       |       |        |       |       |       |        
|--------------------------------|--------------------------------|
|0-------------------------------|0-------------------------------|
|----------------0---------------|----------------0---------------|
|--------------------------------|--------------------------------|

 |       |       |       |        |       |       |       |        
|--------------------------------|--------------------------------|
|0-------------------------------|0-------------------------------|
|----------------0---------------|----------------0---------------|
|--------------------------------|--------------------------------|

 |       |       |       |        |       |       |       |        
|--------------------------------|--------------------------------|
|0-------------------------------|--------------------------------|
|----------------0-----------0---|4---------------------------4---|
|--------------------------------|----------------4---------------|

 |       |       |       |        |       |       |       |        
|--------------------------------|--------------------------------|
|0-------------------------------|4---------------3---------------|
|----------------0-----------0---|--------------------------------|
|--------------------------------|--------------------------------|

 |       |       |       |        |       |       |       |        
|--------------------------------|--------------------------------|
|2---------------2---------------|--------------------------------|
|--------------------------------|3-----------3-------------------|
|--------------------------------|--------------------------------|

 |       |       |       |        |       |       |       |        
|--------------------------------|--------0---1---2---------------|
|2---------------2---------------|2---4---------------------------|
|--------------------------------|------------------------0-------|
|--------------------------------|--------------------------------|

 |       |       |       |        |       |       |       |        
|--------------------------------|--------------------------------|
|0-------------------------------|--------------------------------|
|----------------0---------------|4---------------------------4---|
|--------------------------------|----------------4---------------|

 |       |       |       |        |       |       |       |        
|--------------------------------|--------------------------------|
|0-------------------------------|4---------------3---------------|
|----------------0-----------0---|--------------------------------|
|--------------------------------|--------------------------------|

 |       |       |       |        |       |       |       |        
|----------------------------4---|2-------------------------------|
|2---------------2---------------|------------2-----------2-------|
|--------------------------------|----------------0---------------|
|--------------------------------|--------------------------------|

 |       |       |       |        |       |       |       |        
|--------------------------------|----------------2---------------|
|4-----------0-------------------|2-----------2-------------------|
|----------------2---------------|------------------------0-------|
|--------------------------------|--------------------------------|

 |       |       |       |        |       |       |       |        
|--------------------------------|--------------------------------|
|0-------------------------------|--------------------------------|
|----------------0-----------0---|4---------------------------4---|
|--------------------------------|----------------4---------------|

 |       |       |       |        |       |       |       |        
|--------------------------------|--------------------------------|
|0-------------------------------|4---------------3---------------|
|----------------0-----------0---|--------------------------------|
|--------------------------------|--------------------------------|

 |       |       |       |        |       |       |       |        
|--------------------------------|--------------------------------|
|2-------------------------------|--------------------------------|
|----------------2---------------|3-----------3-------------------|
|--------------------------------|--------------------------------|

 |       |       |       |        |       |       |       |        
|--------------------------------|--------0---1---2---------------|
|2---------------2---------------|2---4---------------------------|
|--------------------------------|------------------------0-------|
|--------------------------------|--------------------------------|

 |       |       |       |        |       |       |       |        
|--------------------------------|--------------------------------|
|2---------------------------2---|--------------------------------|
|----------------2---------------|0-------------------------------|
|--------------------------------|----------------0---------------|

 |       |       |       |        |       |       |       |        
|--------------------------------|--------------------------------|
|0-------------------------------|----------------4---------------|
|----------------0---------------|2---------------------------2---|
|--------------------------------|--------------------------------|

 |       |       |       |        |       |       |       |        
|--------------------------------|--------------------------------|
|--------------------------------|--------------------------------|
|--------------------------------|0-----------------------0-------|
|0---------------0---------------|--------3-------2---------------|

 |       |       |       |        |       |       |       |        
|--------------------------------|--------------------------------|
|2---------------2---------------|--------------------------------|
|--------------------------------|----------------0---------------|
|--------------------------------|0-----------0-------------------|

 |       |       |       |        |       |       |       |        
|--------------------------------|--------------------------------|
|0-------------------------------|0-------------------------------|
|----------------0---------------|----------------0---------------|
|--------------------------------|--------------------------------|

 |       |       |       |        |       |       |       |        
|--------------------------------|--------------------------------|
|0---------------------------0---|--------------------------------|
|----------------0-------0-------|--------------------------------|
|--------------------------------|--------------------------------|

 |       |       |       |        |       |       |       |        
|--------------------------------|--------------------------------|
|0-----------0-------------------|--------------------------------|
|----------------0-----------0---|4-----------4---------------4---|
|--------------------------------|----------------4---------------|

 |       |       |       |        |       |       |       |        
|--------------------------------|--------------------------------|
|0-------------------------------|4---------------3---------------|
|----------------0---------------|--------------------------------|
|--------------------------------|--------------------------------|

 |       |       |       |        |       |       |       |        
|--------------------------------|--------------------------------|
|2---------------2---------------|--------------------------------|
|--------------------------------|3-----------3-------------------|
|--------------------------------|--------------------------------|

 |       |       |       |        |       |       |       |        
|--------------------------------|--------------------------------|
|2---------------2---------------|--------------------------------|
|--------------------------------|0-------------------------------|
|--------------------------------|--------------------------------|

 |       |       |       |        |       |       |       |        
|--------------------------------|--------------------------------|
|0-------------------------------|--------------------------------|
|----------------0---------------|4---------------------------4---|
|--------------------------------|----------------4---------------|

 |       |       |       |        |       |       |       |        
|--------------------------------|--------------------------------|
|0-------------------------------|4---------------3---------------|
|----------------0-----------0---|--------------------------------|
|--------------------------------|--------------------------------|

 |       |       |       |        |       |       |       |        
|----------------------------4---|2-------------------------------|
|2---------------2---------------|------------2-----------2-------|
|--------------------------------|----------------0---------------|
|--------------------------------|--------------------------------|

 |       |       |       |        |       |       |       |        
|--------------------------------|--------------------------------|
|4-----------0-------------------|2-----------2-------------------|
|----------------2---------------|----------------0-------0-------|
|--------------------------------|--------------------------------|

 |       |       |       |        |       |       |       |        
|--------------------------------|--------------------------------|
|0-------------------------------|--------------------------------|
|----------------0-----------0---|4---------------------------4---|
|--------------------------------|----------------4---------------|

 |       |       |       |        |       |       |       |        
|--------------------------------|--------------------------------|
|0-------------------------------|4---------------3---------------|
|----------------0-----------0---|--------------------------------|
|--------------------------------|--------------------------------|

 |       |       |       |        |       |       |       |        
|--------------------------------|--------------------------------|
|2---------------2---------------|--------------------------------|
|--------------------------------|3-----------3-------------------|
|--------------------------------|--------------------------------|

 |       |       |       |        |       |       |       |        
|--------------------------------|--------0---1---2---------------|
|2---------------2---------------|2---4---------------------------|
|--------------------------------|--------------------0---2---4---|
|--------------------------------|--------------------------------|

 |       |       |       |        |       |       |       |        
|--------------------------------|--------------------------------|
|0-------------------------------|0-------------------------------|
|----------------0---------------|----------------0---------------|
|--------------------------------|--------------------------------|

 |       |       |       |        |       |       |       |        
|--------------------------------|--------------------------------|
|0---------------------------0---|--------------------------------|
|----------------0-------4-------|--------------------------------|
|--------------------------------|--------------------------------|

 |       |       |       |        |       |       |       |        
|--------------------------------|--------------------------------|
|--------------------------------|0-------------------------------|
|--------------------------------|----------------0---------------|
|--------------------------------|--------------------------------|

 |       |       |       |        |       |       |       |        
|--------------------------------|--------------------------------|
|0-------------------------------|0---------------------------0---|
|----------------0---------------|----------------0-------0-------|
|--------------------------------|--------------------------------|



Created with TablEdit http://www.tabledit.com/


............................................................
     
Добавлено: 09.09.2013
Другие материалы по этой песне:
  • Аккорды и текст

Страница создана 09.09.2013
http://primanota.ru/shadows/friends-chords.htm
Привет, Гость.
Предлагаем пройти революционный курс по гитаре.
Подарок от PrimaNota.Ru, забирай!