PrimaNota.ru - самый крупный в мире бесплатный архив песенных текстов, аккордов, табулатур и нот


Shadows - French Dressing - бас-таба, видео

Регистрация Запомнить меня
Войти через:  Facebook Google Twitter Vk Yandex Mail.ru

Shadows - French Dressing - бас-таба, видео

Печатать
Просмотров: 88
Уроки эстрадного вокала в Санкт-Петербурге
s/shadows/French_Dressing.btab

Basstab by Jan Bjorklund, Finland  jani_bjorklund@yahoo.se>
You are welcome to request for basstabs!
Bienvenidos a pedirme transcripciones para el bajo!
Fingering and positions as suggested by TablEdit. 

TablEdited by Jan Bjorklund
Tuning : E A D G 	Time Signature: 2/4

 |       |        |       |        |       |        |       |        
|----------------|----------------|----------------|----------------|
|----------------|3-------3-------|----------------|3-------3-------|
|3-------3-------|----------------|3-------3-------|----------------|
|----------------|----------------|----------------|----------------|

 |       |        |       |        |       |        |       |        
|----------------|----------------|----------------|----------------|
|----------------|3-------3-------|0-------0-------|----------------|
|3-------3-------|----------------|----------------|------------0-2-|
|----------------|----------------|----------------|3---------3-----|

 |       |        |       |        |       |        |       |        
|----------------|----------------|----------------|----------------|
|----------------|----------------|----------------|----------------|
|3---------------|3-------3-------|----------------|----------------|
|--------3-------|----------------|4-------4-------|4-------4-------|

 |       |        |       |        |       |        |       |        
|----------------|----------------|----------------|----------------|
|----------------|----------------|----------------|----------------|
|3---------------|3-------3-------|1-------1-------|----------------|
|--------3-------|----------------|----------------|3-------3-------|

 |       |        |       |        |       |        |       |        
|----------------|----------------|----------------|----------------|
|----------------|----------------|----------------|----------------|
|3---------------|3-------3-------|----------------|----------------|
|--------3-------|----------------|4-------4-------|4-------4-------|

 |       |        |       |        |       |        |       |        
|----------------|----------------|----------------|----------------|
|----------------|----------------|----------------|----------------|
|3-------3-------|----------------|3---------------|--------0---2---|
|----------------|1-------3-------|--------3-------|3---3-----------|

 |       |        |       |        |       |        |       |        
|----------------|----------------|----------------|----------------|
|----------------|----------------|----------------|----------------|
|3---------------|3-------3-------|----------------|----------------|
|--------3-------|----------------|4-------4-------|4-------4-------|

 |       |        |       |        |       |        |       |        
|----------------|----------------|----------------|----------------|
|----------------|----------------|----------------|----------------|
|3---------------|3-------3-------|1-------1-------|----------------|
|--------3-------|----------------|----------------|3-------3-------|

 |       |        |       |        |       |        |       |        
|----------------|----------------|----------------|----------------|
|----------------|----------------|----------------|----------------|
|3---------------|3-------3-------|----------------|----------------|
|--------3-------|----------------|4-------4-------|4-------4-------|

 |       |        |       |        |       |        |       |        
|----------------|----------------|----------------|----------------|
|----------------|----------------|----------------|----------------|
|3-------3-------|----------------|3---------------|3-------3-------|
|----------------|1-------3-------|--------3-------|----------------|

 |       |        |       |        |       |        |       |        
|----------------|----------------|2---------------|2---2---1-------|
|2---------------|2---------------|--------2-------|------------4---|
|--------2-------|--------2-------|----------------|----------------|
|----------------|----------------|----------------|----------------|

 |       |        |       |        |       |        |       |        
|----------------|----------------|2---------------|2---1---0-------|
|2---------------|2---------------|--------2-------|------------4---|
|--------2-------|--------2-------|----------------|----------------|
|----------------|----------------|----------------|----------------|

 |       |        |       |        |       |        |       |        
|----------------|----------------|3---------------|3---------------|
|3---------------|3---------------|--------3-------|--------3-------|
|--------3-------|--------3-------|----------------|----------------|
|----------------|----------------|----------------|----------------|

 |       |        |       |        |       |        |       |        
|0---------------|0---------------|0---------------|0---------------|
|--------0-------|--------0-------|--------0-------|----------------|
|----------------|----------------|----------------|--------0---2---|
|----------------|----------------|----------------|----3-----------|

 |       |        |       |        |       |        |       |        
|----------------|----------------|----------------|----------------|
|----------------|----------------|----------------|----------------|
|3---------------|3-------3-------|----------------|----------------|
|--------3-------|----------------|4-------4-------|4-------4-------|

 |       |        |       |        |       |        |       |        
|----------------|----------------|----------------|----------------|
|----------------|----------------|----------------|----------------|
|3---------------|3-------3-------|1-------1-------|----------------|
|--------3-------|----------------|----------------|3-------3-------|

 |       |        |       |        |       |        |       |        
|----------------|----------------|----------------|----------------|
|----------------|----------------|----------------|----------------|
|3---------------|3-------3-------|----------------|----------------|
|--------3-------|----------------|4-------4-------|4-------4-------|

 |       |        |       |        |       |        |       |        
|----------------|----------------|----------------|----------------|
|----------------|----------------|----------------|----------------|
|3-------3-------|----------------|3---------------|3---------------|
|----------------|1-------3-------|--------3-------|--------3-------|

 |       |        |       |        |       |        |       |        
|----------------|----------------|2---------------|2---2---1-------|
|2---------------|2---------------|--------2-------|------------4---|
|--------2-------|--------2-------|----------------|----------------|
|----------------|----------------|----------------|----------------|

 |       |        |       |        |       |        |       |        
|----------------|----------------|2---------------|2---1---0-------|
|2---------------|2---------------|--------2-------|------------4---|
|--------2-------|--------2-------|----------------|----------------|
|----------------|----------------|----------------|----------------|

 |       |        |       |        |       |        |       |        
|----------------|----------------|3---------------|3---------------|
|3---------------|3---------------|--------3-------|--------3-------|
|--------3-------|--------3-------|----------------|----------------|
|----------------|----------------|----------------|----------------|

 |       |        |       |        |       |        |       |        
|0---------------|0---------------|0---------------|0---------------|
|--------0-------|--------0-------|--------0-------|----------------|
|----------------|----------------|----------------|--------0---2---|
|----------------|----------------|----------------|----3-----------|

 |       |        |       |        |       |        |       |        
|----------------|----------------|----------------|----------------|
|----------------|----------------|----------------|----------------|
|3---------------|3-------3-------|----------------|----------------|
|--------3-------|----------------|4-------4-----4-|4---4---4---4---|

 |       |        |       |        |       |        |       |        
|----------------|----------------|----------------|----------------|
|----------------|----------------|----------------|----------------|
|3---------------|3-------3-------|1-------1-------|----------------|
|--------3-------|----------------|----------------|3-------3-------|

 |       |        |       |        |       |        |       |        
|----------------|----------------|----------------|----------------|
|----------------|----------------|1-------1-------|1-------1-------|
|3---------------|3-------3-------|----------------|----------------|
|--------3-------|--------3-------|4-------4-------|4-------4-------|

 |       |        |       |        |       |        |       |        
|----------------|----------------|----------------|----------------|
|----------------|----------------|----------------|----------------|
|3-------3-------|----------------|3-------3-------|3-------3-------|
|----------------|1-------3-------|--------3-------|--------3-------|

 |       |        |       |        |       |        |       |        
|----------------|----------------|----------------|----------------|
|----------------|----------------|3---------------|3-------3-------|
|3---3---3---3---|3---3---3---3---|--------3-------|----------------|
|----------------|----------------|----------------|----------------|

 |       |        |       |        |       |        |       |        
|----------------|----------------|----------------|----------------|
|----------------|----------------|3---------------|3-------3-------|
|4-------4-------|4-------4-------|--------3-------|----------------|
|----------------|----------------|----------------|----------------|

 |       |        |       |        |       |        |       |        
|----------------|----------------|----------------|----------------|
|1-------1-------|----------------|3---------------|3-------3-------|
|----------------|3-------3-------|--------3-------|----------------|
|----------------|----------------|----------------|----------------|

 |       |        |       |        |       |        |       |        
|----------------|----------------|----------------|----------------|
|----------------|----------------|3-------3-------|----------------|
|4-------4-------|4-------4-------|----------------|1-------3-------|
|----------------|----------------|----------------|----------------|

 |       |        |       |        |       |        |       |        
|----------------|----------------|----------------|----------------|
|3-------3-------|----------------|3-------3-------|----------------|
|----------------|1-------3-------|----------------|1-------3-------|
|----------------|----------------|----------------|----------------|

 |       |        |       |        |       |        |       |        
|----------------|----------------|----------------|----------------|
|3---------------|3---------------|3---------------|----------------|
|--------3-------|--------3-------|--------3-------|----------------|
|----------------|----------------|----------------|1---------------|

 
Created with TablEdit http://www.tabledit.com/

............................................................
     
Добавлено: 27.07.2013
Другие материалы по этой песне:
  • Аккорды и текст

Страница создана 27.07.2013
http://primanota.ru/shadows/french-dressing-chords.htm
Привет, Гость.
Предлагаем пройти революционный курс по гитаре.
Подарок от PrimaNota.Ru, забирай!