PrimaNota.ru - самый крупный в мире бесплатный архив песенных текстов, аккордов, табулатур и нот


Shadows - Man Of Mystery 1960 - таба, видео

Регистрация Запомнить меня
Войти через:  Facebook Google Twitter Vk Yandex Mail.ru

Shadows - Man Of Mystery 1960 - таба, видео

Печатать
Просмотров: 96
shadows_man of mystery,1960  version

Basstab by Jan Bjorklund, Finland  jani_bjorklund@yahoo.se>
You are welcome to request for basstabs!
Fingering and positions as suggested by TablEdit, please use common sense!

TablEdited by Jan Bjorklund
Tuning : E A D G 	Time Signature: 4/4

  |       |       |       |          |       |       |       |         
|----------------------------------|----------------------------------|
|-2-------2-------2-------2--------|----------------------------------|
|----------------------------------|----------------------------------|
|----------------------------------|----------------------------------|

  |       |       |       |          |       |       |       |         
|----------------------------------|-2-----------------------2--------|
|-2-------2-------2-------2--------|----------------------------------|
|----------------------------------|---------0-------3----------------|
|----------------------------------|----------------------------------|

  |       |       |       |          |       |       |       |         
|-1-------4-------1----------------|-2--------------------------------|
|-------------------------2--------|-------------------------2--------|
|----------------------------------|---------0-------4----------------|
|----------------------------------|----------------------------------|

  |       |       |       |          |       |       |       |         
|-----------------2----------------|----------------------------------|
|-0-------4---------------4--------|-0-------3-------2-------0--------|
|----------------------------------|----------------------------------|
|----------------------------------|----------------------------------|

  |       |       |       |          |       |       |       |         
|----------------------------------|----------------------------------|
|-0-----------------------3--------|-0-------3-------0-------3--------|
|---------0-------3----------------|----------------------------------|
|----------------------------------|----------------------------------|

  |       |       |       |          |       |       |       |         
|-----------------1----------------|-2-----------------------2--------|
|-2-----------------------2--------|-----------------2----------------|
|---------2------------------------|---------0------------------------|
|----------------------------------|----------------------------------|

  |       |       |       |          |       |       |       |         
|-1-------4-------1----------------|-2--------------------------------|
|-------------------------2--------|-------------------------2--------|
|----------------------------------|---------0-------4----------------|
|----------------------------------|----------------------------------|

  |       |       |       |          |       |       |       |         
|-----------------2----------------|----------------------------------|
|-0-------4---------------4--------|-0-------3-------2-------0--------|
|----------------------------------|----------------------------------|
|----------------------------------|----------------------------------|

  |       |       |       |          |       |       |       |         
|----------------------------------|----------------------------------|
|-0-----------------------3--------|-0-------0-------2-------2--------|
|---------0-------3----------------|----------------------------------|
|----------------------------------|----------------------------------|

  |       |       |       |          |       |       |       |         
|-2---------------2----------------|----------------------------------|
|---------2------------------------|-0-------3-------2-------0--------|
|----------------------------------|----------------------------------|
|----------------------------------|----------------------------------|

  |       |       |       |          |       |       |       |         
|----------------------------------|---------4-------1----------------|
|-------------------------3--------|-2-----------------------2--------|
|-0-------0-------3----------------|----------------------------------|
|----------------------------------|----------------------------------|

  |       |       |       |          |       |       |       |         
|-2--------------------------------|----------------------------------|
|----------------------------------|-0-------3-------2-------0--------|
|----------------------------------|----------------------------------|
|----------------------------------|----------------------------------|

  |       |       |       |          |       |       |       |         
|-2--------------------------------|----------------------------------|
|-------------------------3--------|-----------------0-------0--------|
|---------0-------3----------------|-2-------2------------------------|
|----------------------------------|----------------------------------|

  |       |       |       |          |       |       |       |         
|----------------------------------|-2-----------------------2--------|
|-2--------------------------------|----------------------------------|
|----------------------------------|---------0-------3----------------|
|----------------------------------|----------------------------------|

  |       |       |       |          |       |       |       |         
|-1-------4-------1----------------|-2--------------------------------|
|-------------------------2--------|-------------------------2--------|
|----------------------------------|---------0-------4----------------|
|----------------------------------|----------------------------------|

  |       |       |       |          |       |       |       |         
|-----------------2----------------|----------------------------------|
|-0-------4---------------4--------|-0-------3-------2-------0--------|
|----------------------------------|----------------------------------|
|----------------------------------|----------------------------------|

  |       |       |       |          |       |       |       |         
|----------------------------------|----------------------------------|
|-0-----------------------3--------|-0-------0-------2-------2--------|
|---------0-------3----------------|----------------------------------|
|----------------------------------|----------------------------------|

  |       |       |       |          |       |       |       |         
|-2---------------2----------------|----------------------------------|
|---------2------------------------|-0-------3-------2-------0--------|
|----------------------------------|----------------------------------|
|----------------------------------|----------------------------------|

  |       |       |       |          |       |       |       |         
|----------------------------------|---------4-------1----------------|
|-------------------------3--------|-2-----------------------2--------|
|-0-------0-------3----------------|----------------------------------|
|----------------------------------|----------------------------------|

  |       |       |       |          |       |       |       |         
|-2--------------------------------|----------------------------------|
|----------------------------------|-0-------3-------2-------0--------|
|----------------------------------|----------------------------------|
|----------------------------------|----------------------------------|

  |       |       |       |          |       |       |       |         
|-2--------------------------------|----------------------------------|
|-------------------------3--------|-----------------0-------0--------|
|---------0-------3----------------|-2-------2------------------------|
|----------------------------------|----------------------------------|

  |       |       |       |          |       |       |       |         
|----------------------------------|----------------------------------|
|-2--------------------------------|-2-------2---2---2---2---2---2----|
|----------------------------------|----------------------------------|
|----------------------------------|----------------------------------|

  |       |       |       |          |       |       |       |         
|-------------0--------------------|-2--------------------------------|
|-0---2---3-------3---2---0---2----|-----2-2-2---2-------2---0--------|
|----------------------------------|-----------------0-----------3----|
|----------------------------------|----------------------------------|

  |       |       |       |          |       |       |       |         
|-----4---1------------------------|----------------------------------|
|-2---------------2---0-0-0--------|----------------------------------|
|-----------------------------3----|-0--------------------------------|
|----------------------------------|----------------------------------|

  |       |       |       |          |       |       |       |         
|-----------------0----------------|-2--------------------------------|
|-0---3---2---0-------3---2---0----|-----3---2---0-------2---0--------|
|----------------------------------|-----------------3-----------3----|
|----------------------------------|----------------------------------|

  |       |       |       |          |       |       |       |         
|-----4---1------------------------|----------------------------------|
|-1-----------4---2---2---2---2----|-2--------------------------------|
|----------------------------------|----------------------------------|
|----------------------------------|----------------------------------|

  |       |       |       |          |       |       |       |         
|-2-----------------------2--------|-1-------4-------1----------------|
|----------------------------------|-------------------------2--------|
|---------0-------3----------------|----------------------------------|
|----------------------------------|----------------------------------|

  |       |       |       |          |       |       |       |         
|-2--------------------------------|-----------------2----------------|
|-------------------------2--------|-0-------4---------------4--------|
|---------0-------4----------------|----------------------------------|
|----------------------------------|----------------------------------|

  |       |       |       |          |       |       |       |         
|----------------------------------|----------------------------------|
|-0-------3-------2-------0--------|-0-----------------------3--------|
|----------------------------------|---------0-------3----------------|
|----------------------------------|----------------------------------|

  |       |       |       |          |       |       |       |         
|----------------------------------|-2---------------2----------------|
|-0-------3-------0-------0--------|---------2------------------------|
|----------------------------------|----------------------------------|
|----------------------------------|----------------------------------|

  |       |       |       |          |       |       |       |         
|-2-----------------------2--------|-1-------4-------1----------------|
|----------------------------------|-------------------------2--------|
|---------0-------3----------------|----------------------------------|
|----------------------------------|----------------------------------|

  |       |       |       |          |       |       |       |         
|-2--------------------------------|-----------------2----------------|
|-------------------------2--------|-0-------4---------------4--------|
|---------0-------4----------------|----------------------------------|
|----------------------------------|----------------------------------|

  |       |       |       |          |       |       |       |         
|----------------------------------|----------------------------------|
|-0-------3-------2-------0--------|-0-----------------------3--------|
|----------------------------------|---------0-------3----------------|
|----------------------------------|----------------------------------|

  |       |       |       |          |       |       |       |         
|-2-------2------------------------|-2--------------------------------|
|-----------------0-------2--------|---------2------------------------|
|----------------------------------|----------------------------------|
|----------------------------------|----------------------------------|

 


Created with TablEdit http://www.tabledit.com/
     
Добавлено: 03.09.2013
Другие материалы по этой песне:
  • Аккорды и текст

Страница создана 03.09.2013
http://primanota.ru/shadows/man-of-mystery-1960-chords.htm
Привет, Гость.
Предлагаем пройти революционный курс по гитаре.
Подарок от PrimaNota.Ru, забирай!