PrimaNota.ru - самый крупный в мире бесплатный архив песенных текстов, аккордов, табулатур и нот


Shadows - Johnny Guitar - бас-таба, видео

Регистрация Запомнить меня
Войти через:  Facebook Google Twitter Vk Yandex Mail.ru

Shadows - Johnny Guitar - бас-таба, видео

Печатать
Просмотров: 241
Basstab by Jan Bjorklund, Finland; 
jani_bjorklund@yahoo.se 
You are welcome to request for basstabs!
Bienvenidos a pedirme transcripciones para el bajo!


TablEdited by Jan Bjorklund for nordin
Tuning : E A D G 	Time Signature: 4/4

 tempo 126       |       |        |       |       |       |        
|2---------------2---2-----------|----------------2---2-----------|
|------------2-----------2-------|0-----------3-----------3---0---|
|----------------------------3---|--------------------------------|
|--------------------------------|--------------------------------|

 |       |       |       |        |       |       |       |        
|--------------------------------|--------------------------------|
|--------------------2-----------|--------------------2-----------|
|0-----------2---3-------3---2---|0-----------2---3-------3---2---|
|--------------------------------|--------------------------------|

 |       |       |       |        |       |       |       |        
|----------------2---2-----------|----------------2---2-----------|
|------------2-----------2-------|0-----------3-----------3---0---|
|0---------------------------3---|--------------------------------|
|--------------------------------|--------------------------------|

 |       |       |       |        |       |       |       |        
|--------------------------------|--------------------------------|
|--------------------2-----------|----------------2---------------|
|0-----------2---3-------3---2---|0-----------3-------0---3---2---|
|--------------------------------|--------------------------------|

 |       |       |       |        |       |       |       |        
|--------------------2-----------|--------------------2-----------|
|0-----------2---3-------3---2---|0-----------2---3-------3---2---|
|--------------------------------|--------------------------------|
|--------------------------------|--------------------------------|

 |       |       |       |        |       |       |       |        
|--------------------------------|--------------------------------|
|--------------------2-----------|------------0---2---2---2-------|
|0-----------2---3-------3---2---|0---------------------------3---|
|--------------------------------|--------------------------------|

 |       |       |       |        |       |       |       |        
|--------------------5---4---2---|--------------------4---2---1---|
|3---------------3---------------|2-----------2---2---------------|
|------------3-------------------|--------------------------------|
|--------------------------------|--------------------------------|

 |       |       |       |        |       |       |       |        
|--------------------------------|--------------------------------|
|--------------------2-----------|--------------------0-----------|
|0-----------2---3-------3---2---|------------0---2-------2-------|
|--------------------------------|3---------------------------3---|

 |       |       |       |        |       |       |       |        
|--------------------------------|--------------------------------|
|--------------------------------|----------------2---2-------0---|
|----------------0---3---0-------|------------2-----------2-------|
|1---------2/3---------------3---|0-------------------------------|

 |       |       |       |        |       |       |       |        
|--------------------------------|--------------------------------|
|2---------------2---2-----------|--------------------------------|
|------------2-------------------|--------------------------------|
|------------------------0---0---|5-------5-5-5---5-------5---4---|

 |       |       |       |        |       |       |       |        
|--------------------------------|--------------------------------|
|--------------------------------|--------------------------------|
|5-------5-5-5---5-------5---5---|--------------------------------|
|--------------------------------|5-------5-5-5---5-------5-5-5---|

 |       |       |       |        |       |       |       |        
|--------------------------------|--------------------------------|
|--------------------------------|--------------------------------|
|--------------------------------|--------------------------------|
|5-------5---5---5-------5---5---|5-------5-5-5---5-------5---5---|

 |       |       |       |        |       |       |       |        
|--------------------------------|--------------------------------|
|--------------------------------|--------------------------------|
|5-------5-5-5---5-------5---5---|--------------------------------|
|--------------------------------|5-------5-5-5---5-------5-5-5---|

 |       |       |       |        |       |       |       |        
|--------------------------------|--------------------2-----------|
|--------------------------------|0-----------2---3-------3---2---|
|--------------------------------|--------------------------------|
|5-------5---5---5---5---5-------|--------------------------------|

 |       |       |       |        |       |       |       |        
|--------------------2-----------|--------------------------------|
|0-----------2---3-------3---2---|--------------------2-----------|
|--------------------------------|0-----------2---3-------3---2---|
|--------------------------------|--------------------------------|

 |       |       |       |        |       |       |       |        
|--------------------------------|--------------------------------|
|--------------------2-----------|3---------------3---------------|
|0-----------2---3-------3---0---|------------3-------3---2---0---|
|--------------------------------|--------------------------------|

 |       |       |       |        |       |       |       |        
|--------------------------------|--------------------------------|
|----------------2---------------|--------------------2-----------|
|------------2-------2---0-------|0-----------2---3-------3---2---|
|0---------------------------4---|--------------------------------|

 |       |       |       |        |       |       |       |        
|--------------------------------|--------------------------------|
|--------------------0-----------|--------------------------------|
|------------0---2-------2---0---|----------------0---3---0-------|
|3-------------------------------|1-----------3---------------1---|

 |       |       |       |        |       |       |       |        
|--------------------------------|----------------2---------------|
|--------------------------------|------------2-----------2-------|
|------------2-2-4---------------|0---------------------------3---|
|0---0---0-----------0---0---0---|--------------------------------|

 |       |       |       |        |       |       |       |        
|----------------2---2-----------|--------------------------------|
|0-----------3-----------3---0---|--------------------2-----------|
|--------------------------------|0-----------2---3-------3---2---|
|--------------------------------|--------------------------------|

 |       |       |       |        |       |       |       |        
|--------------------------------|----------------2---2-----------|
|--------------------2-----------|------------2-----------2-------|
|0-----------2---3-------3---2---|0---------------------------3---|
|--------------------------------|--------------------------------|

 |       |       |       |        |       |       |       |        
|----------------2---2-----------|--------------------------------|
|0-----------3-----------3---0---|--------------------2-----------|
|--------------------------------|0-----------2---3-------3---2---|
|--------------------------------|--------------------------------|

 |       |       |       |        |       |       |       |        
|--------------------------------|--------------------2-----------|
|----------------2---0-----------|0-----------2---3-------3---2---|
|0-----------2-----------2---3---|--------------------------------|
|--------------------------------|--------------------------------|

 |       |       |       |        |       |       |       |        
|--------------------2-----------|--------------------------------|
|0-----------2---3-------3---2---|--------------------2-----------|
|--------------------------------|0-----------2---3-------3---2---|
|--------------------------------|--------------------------------|

 |       |       |       |        |       |       |       |        
|--------------------------------|--------------------5---4---2---|
|----------------2---2-----------|3---------------3---------------|
|0-----------3-----------3---0---|------------3-------------------|
|--------------------------------|--------------------------------|

 |       |       |       |        |       |       |       |        
|--------------------4---2---1---|--------------------------------|
|----------------2---------------|--------------------2-----------|
|------------2-------------------|0-------0---2---3-------3---2---|
|0-------------------------------|--------------------------------|

 |       |       |       |        |       |       |       |        
|--------------------------------|--------------------5---4---2---|
|--------------------2-----------|3---------------3---------------|
|0-------0---2---3-------3---0---|------------3-------------------|
|--------------------------------|--------------------------------|

 |       |       |       |        |       |       |       |        
|--------------------4---2h4p2-1-|--------------------------------|
|--------------------------------|--------------------2-----------|
|--------------------------------|0-----------2---3-------3---2---|
|0-----------0---0---------------|--------------------------------|

 |       |       |       |        |       |       |       |        
|--------------------------------|--------------------------------|
|--------------------------------|3-------------------------------|
|0-----------2---3---3---2---0---|--------------------------------|
|--------------------------------|--------------------------------|

 |       |       |       |        |       |       |       |        
|--------------------------------|2-------------------------------|
|2-------------------------------|--------------------------------|
|--------------------------------|--------------------------------|
|--------------------------------|--------------------------------|

Transcribe! 6.0 transcription http://www.seventhstring.demon.co.uk/
Created with TablEdit http://www.tabledit.com/


_____________________________________________________
     
Добавлено: 06.08.2013
Другие материалы по этой песне:
  • Аккорды и текст

Страница создана 06.08.2013
http://primanota.ru/shadows/johnny-guitar-chords.htm
Привет, Гость.
Предлагаем пройти революционный курс по гитаре.
Подарок от PrimaNota.Ru, забирай!