PrimaNota.ru - самый крупный в мире бесплатный архив песенных текстов, аккордов, табулатур и нот


Shadows - Freightened City - бас-таба, видео

Регистрация Запомнить меня
Войти через:  Facebook Google Twitter Vk Yandex Mail.ru

Shadows - Freightened City - бас-таба, видео

Печатать
Просмотров: 80
Shadows/Freightened City.btab

Basstab by Jan Bjorklund, Finland; 
jani_bjorklund@yahoo.se 
You are welcome to request for basstabs or standard notation!
Bienvenidos a pedirme transcripciones para el bajo!

TablEdited by Jan Bjorklund for "wheresthelizard"
Tuning : E A D G 	Time Signature: 2/4

 tempo 108        |       |        (first guitar kick's in here)     
|2-----2---------|2-----2---------|2-----2---------|2-----2---------|
|--------2-------|--------2-------|--------2-------|--------2-------|
|----------------|----------------|----------------|----------------|
|----------------|----------------|----------------|----------------|

 |       |        |       |        (second guitar=melody)   |        
|2-----2---------|2-----2---------|2-----2---------|2-----2---------|
|--------2-------|--------2-------|--------2-------|--------2-------|
|----------------|----------------|----------------|----------------|
|----------------|----------------|----------------|----------------|

 |       |        |       |        |       |        |       |        
|----------------|----------------|2-----2---------|2-----2---------|
|2-----2---------|2-----2---------|--------2-------|--------2-------|
|--------2-------|--------2-------|----------------|----------------|
|----------------|----------------|----------------|----------------|

 |       |        |       |        |       |        |       |        
|----------------|----------------|2-----2---------|2-----2---------|
|2-----2---------|2-----2---------|--------2-------|--------2-------|
|--------2-------|--------2-------|----------------|----------------|
|----------------|----------------|----------------|----------------|

 |       |        |       |        |       |        |       |        
|----------------|----------------|2-----2---------|----------------|
|0-----0---------|0-----0-----0---|--------2-------|2-----2-----2---|
|--------0-------|--------0-------|----------------|--------2-------|
|----------------|----------------|----------------|----------------|

 |       |        |       |        |       |        |       |        
|2-----2---------|2-----2---------|2-----2---------|2-----2---------|
|--------2-------|--------2-------|--------2-------|--------2-------|
|----------------|----------------|----------------|----------------|
|----------------|----------------|----------------|----------------|

 |       |        |       |        |       |        |       |        
|----------------|----------------|2-----2---------|2-----2---------|
|2-----2---------|2-----2---------|--------2-------|--------2-------|
|--------2-------|--------2-------|----------------|----------------|
|----------------|----------------|----------------|----------------|

 |       |        |       |        |       |        |       |        
|----------------|----------------|2-----2---------|2-----2---------|
|2-----2---------|2-----2---------|--------2-------|--------2-------|
|--------2-------|--------2-------|----------------|----------------|
|----------------|----------------|----------------|----------------|

 |       |        |       |        |       |        |       |        
|----------------|--------2-------|2-----2---------|----------------|
|0-----0---------|0-----0-----0---|--------2-------|2-----2-----2---|
|--------0-------|----------------|----------------|--------2-------|
|----------------|----------------|----------------|----------------|

 |       |        |       |        |       |        |       |        
|2-----2---------|2-----2-----2---|----------------|----------------|
|--------2-------|--------2-------|2---------------|2-----2---------|
|----------------|----------------|--------2-------|--------2-------|
|----------------|----------------|----------------|----------------|

 |       |        |       |        |       |        |       |        
|4-----4---------|4---------------|----------------|----------------|
|--------4-------|--------4-------|2-----2---------|2-----2---------|
|----------------|----------------|--------2-------|--------2-------|
|----------------|----------------|----------------|----------------|

 |       |        |       |        |       |        |       |        
|----------------|----------------|----------------|----------------|
|0-----0---------|0---------------|----------------|----------------|
|--------0-------|--------0-------|3-----3---------|3-----3---------|
|----------------|----------------|--------3-------|--------3-3-3---|

 |       |        |       |        |       |        |       |        
|----------------|----------------|----------------|----------------|
|--------3-------|--------3-3-----|2-----2---------|2-----2---------|
|1---------------|1-----1-----1---|--------2-------|--------2-------|
|----------------|----------------|----------------|----------------|

 |       |        |       |        |       |        |       |        
|----------------|----------------|2-----2---------|2---------------|
|2-----2---------|2-----2-----2---|--------2-------|--------2-2-----|
|--------2-------|--------2-------|----------------|----------------|
|----------------|----------------|----------------|----------------|

 |       |        |       |        |       |        |       |        
|----------------|----------------|2-----2---------|2-----2---------|
|2-----2---------|2-----2---------|--------2-------|--------2-------|
|--------2-------|--------2-------|----------------|----------------|
|----------------|----------------|----------------|----------------|

 |       |        |       |        |       |        |       |        
|----------------|----------------|2-----2---------|2---------------|
|2-----2---------|2-----2-----2---|--------2-------|--------2-------|
|--------2-------|--------2-------|----------------|----------------|
|----------------|----------------|----------------|----------------|

 |       |        |       |        |       |        |       |        
|----------------|----------------|----4---2-------|----------------|
|0-----0---------|0-----0-----0---|------------3---|2---0-----------|
|--------0-------|--------0-------|----------------|--------3---2---|
|----------------|----------------|----------------|----------------|

 |       |        |       |        |       |        |       |        
|----------------|----------------|----4---2-------|----------------|
|--------2-------|--------2-------|------------3---|2---0-----------|
|0-----0---------|0-----0---------|----------------|--------3---2---|
|----------------|----------------|----------------|----------------|

 |       |        |       |        |       |        |       |        
|----------------|----------------|----------------|----------------|
|--------2-------|--------2-------|----------------|----------------|
|0-----0---------|0-----0---------|0---0---0-------|----------------|
|----------------|----------------|----------------|----------------|

 |       |        |       |        |       |        |       |        
|----------------|----------------|----------------|----------------|
|2---2---2-------|----------------|----------------|----------------|
|----------------|----------------|0---0---0-------|----------------|
|----------------|----------------|----------------|----------------|

 |       |        |       |        |       |        |       |        
|----------------|2-----2---------|2-----2---------|2-----2---------|
|2-----2---------|--------2-------|--------2-------|--------2-------|
|--------2-------|----------------|----------------|----------------|
|----------------|----------------|----------------|----------------|

 |       |        |       |        |       |        |       |        
|----------------|----------------|4-----4---------|4---------------|
|2---------------|2---------------|--------4-------|--------4-------|
|--------2-------|--------2-------|----------------|----------------|
|----------------|----------------|----------------|----------------|

 |       |        |       |        |       |        |       |        
|----------------|----------------|----------------|----------------|
|2-----2---------|2-----2---------|0---------------|0---------------|
|--------2-------|--------2-------|--------0-------|--------0-------|
|----------------|----------------|----------------|----------------|

 |       |        |       |        |       |        |       |        
|----------------|----------------|----------------|----------------|
|----------------|----------------|--------3-------|--------3-------|
|3---------------|3-----3---------|1-----1---------|1-----1---------|
|--------3-------|--------3---3---|----------------|----------------|

 |       |        |       |        |       |        |       |        
|----------------|----------------|----------------|----------------|
|2-----2---------|2-----2---------|2-----2---------|2-----2-----2---|
|--------2-------|--------2-------|--------2-------|--------2-------|
|----------------|----------------|----------------|----------------|

 |       |        |       |        |       |        |       |        
|2-----2---------|2-----2---------|----------------|----------------|
|--------2-------|--------2-------|2-----2---------|2-----2---------|
|----------------|----------------|--------2-------|--------2-------|
|----------------|----------------|----------------|----------------|

 |       |        |       |        |       |        |       |        
|2-----2---------|2-----2---------|----------------|----------------|
|--------2-------|--------2-------|2-----2---------|2-----2---------|
|----------------|----------------|--------2-------|--------2-------|
|----------------|----------------|----------------|----------------|

 |       |        |       |        |       |        |       |        
|2-----2---------|2-----2---------|----------------|----------------|
|--------2-------|--------2-------|0-----0---------|0-----0-----0---|
|----------------|----------------|--------0-------|--------0-------|
|----------------|----------------|----------------|----------------|

 |       |        |       |        |       |        |       |        
|----4---2-------|----------------|----------------|----------------|
|------------3---|2---0-----------|--------2-------|--------2-------|
|----------------|--------3---2---|0-----0---------|0-----0---------|
|----------------|----------------|----------------|----------------|

 |       |        |       |        |       |        (fading)|        
|----------------|----------------|2-----2---------|2-----2---------|
|----------------|----------------|--------2-------|--------2-------|
|0---------------|----------------|----------------|----------------|
|----------------|----------------|----------------|----------------|

 |       |        |       |        |       |        |       |        
|2-----2---------|2-----2---------|2-----2---------|2-----2---------|
|--------2-------|--------2-------|--------2-------|--------2-------|
|----------------|----------------|----------------|----------------|
|----------------|----------------|----------------|----------------|

 |       |        
|2-----2---------|
|--------2-------|
|----------------|
|----------------|



Transcribe! 6.0 transcription http://www.seventhstring.demon.co.uk/
Created with TablEdit http://www.tabledit.com/
http://www.geocities.com/jani_bjorklund/janis.html?1058405404377


=====
Jan Bjorklund, Finland

     
Добавлено: 03.06.2013
Другие материалы по этой песне:
  • Аккорды и текст

Страница создана 03.06.2013
http://primanota.ru/shadows/freightened-city-chords.htm
Привет, Гость.
Предлагаем пройти революционный курс по гитаре.
Подарок от PrimaNota.Ru, забирай!