PrimaNota.ru - самый крупный в мире бесплатный архив песенных текстов, аккордов, табулатур и нот


Shadows - Midninght - бас-таба, видео

Регистрация Запомнить меня
Войти через:  Facebook Google Twitter Vk Yandex Mail.ru

Shadows - Midninght - бас-таба, видео

Печатать
Просмотров: 83
Уроки эстрадного вокала в Санкт-Петербурге
Midnight
Shadows
TablEdited by Jan Bjorklund for wheresthelizard

Tuning : E A D G 	Time Signature: 6/8

 |           |            |           |            |           |            
|------------------------|------------2---0-------|------------------------|
|------------------------|--------------------2---|3-----------3-----------|
|3-----------3-----------|0-----------------------|------------------------|
|------------------------|------------------------|------------------------|

 |           |            |           |            |           |            
|0---2---0---------------|------------------------|------------2---0-------|
|------------3---2---0---|------------------------|--------------------2---|
|------------------------|3-----------3-----------|0-----------------------|
|------------------------|------------------------|------------------------|

 |           |            |           |            |           |            
|------------------------|0-----------2---0-------|------------------------|
|3-----------3-----------|--------------------2---|------------------------|
|------------------------|------------------------|3-----------3-----------|
|------------------------|------------------------|------------------------|

 |           |            |           |            |           |            
|------------2---0-------|------------------------|0-----------2---0-------|
|--------------------2---|3-----------3-----------|--------------------2---|
|0-----------------------|------------------------|------------------------|
|------------------------|------------------------|------------------------|

 |           |            |           |            |           |            
|------------------------|------------------------|------------------------|
|------------------------|------------------------|------------------------|
|3-----------3-----------|------------------------|------------------------|
|------------------------|0-----------0-----------|1-----------1-----------|

 |           |            |           |            |           |            
|------------------------|------------------------|------------------------|
|------------------------|----------------0---2---|3-----------3---2---0---|
|------------------------|3-----------3-----------|------------------------|
|3-----------3-----------|------------------------|------------------------|

 |           |            |           |            |           |            
|5-----------3-----------|2-----------0-----------|------------5-----------|
|------------------------|------------------------|3-----------------------|
|------------------------|------------------------|------------------------|
|------------------------|------------------------|------------------------|

 |           |            |           |            |           |            
|2-----------------------|------------4-----------|------------------------|
|------------3-----------|2-----------------------|2-----------------------|
|------------------------|------------------------|------------2-----------|
|------------------------|------------------------|------------------------|

 |           |            |           |            |           |            
|------------------------|1-----------1-----------|------------------------|
|3-----------3-----------|------------------------|------------2-----------|
|------------------------|------------------------|3-----------------------|
|------------------------|------------------------|------------------------|

 |           |            |           |            |           |            
|0-----------2---0-------|------------------------|------------------------|
|--------------------2---|3-----------3-----------|3-----------3-----------|
|------------------------|------------------------|------------------------|
|------------------------|------------------------|------------------------|

 |           |            |           |            |           |            
|------------4-----------|------------------------|------------------------|
|2-----------------------|2-----------------------|0-----------4-----------|
|------------------------|------------2-----------|------------------------|
|------------------------|------------------------|------------------------|

 |           |            |           |            |           |            
|2-----------------------|------------------------|------------------------|
|------------4-----------|------------------------|0-----------2---0---2---|
|------------------------|------------2-----------|------------------------|
|------------------------|3-----------------------|------------------------|

 |           |            |           |            |           |            
|------------------------|------------2---0-------|------------------------|
|------------------------|--------------------2---|3-----------3-----------|
|3-----------3-----------|0-----------------------|------------------------|
|------------------------|------------------------|------------------------|

 |           |            |           |            |           |            
|0-----------2---0-------|------------------------|------------2---0-------|
|--------------------2---|------------------------|--------------------2---|
|------------------------|3-----------3-----------|0-----------------------|
|------------------------|------------------------|------------------------|

 |           |            |           |            |           |            
|------------------------|0-----------2---0-------|------------------------|
|3-----------3-----------|--------------------2---|------------------------|
|------------------------|------------------------|3-----------3-----------|
|------------------------|------------------------|------------------------|

 |           |            |           |            |           |            
|------------------------|------------------------|------------------------|
|------------------------|------------------------|------------------------|
|------------------------|------------------------|------------------------|
|0-----------0-----------|1-----------1-----------|3-----------3-----------|

 |           |            |           |            |           |            
|------------------------|------------------------|5-------5---3-----------|
|----------------0---2---|3-----------3---2---0---|------------------------|
|3-----------3-----------|------------------------|------------------------|
|------------------------|------------------------|------------------------|

 |           |            |           |            |           |            
|2-----------0-------0---|------------2-------2---|5-------5---------------|
|------------------------|3-------3---------------|------------3-------3---|
|------------------------|------------------------|------------------------|
|------------------------|------------------------|------------------------|

 |           |            |           |            |           |            
|4-------4---------------|------------------------|------------2-------2---|
|------------2-------2---|------------2-------2---|3-------3---------------|
|------------------------|2-------2---------------|------------------------|
|------------------------|------------------------|------------------------|

 |           |            |           |            |           |            
|1-------1---------------|------------------------|0-------0---2-------2---|
|------------3-------3---|------------2-------2---|------------------------|
|------------------------|3-------3---------------|------------------------|
|------------------------|------------------------|------------------------|

 |           |            |           |            |           |            
|------------2-----------|5-------5---------------|------------4-------4---|
|3-------3---------------|------------3-------3---|2-------2---------------|
|------------------------|------------------------|------------------------|
|------------------------|------------------------|------------------------|

 |           |            |           |            |           |            
|------------------------|------------------------|2-------2---4-------4---|
|2-------2---------------|0-----------4-------4---|------------------------|
|------------2-------2---|------------------------|------------------------|
|------------------------|------------------------|------------------------|

 |           |            |           |            |           |            
|------------------------|------------------------|------------------------|
|------------------------|0-------0---2---0-------|------------------------|
|------------2-------2---|--------------------2---|3-----------3-----------|
|3-------3---------------|------------------------|------------------------|

 |           |            |           |            |           |            
|------------2---0-------|------------------------|0-----------2---0-------|
|--------------------2---|3-----------3-----------|--------------------2---|
|0-----------------------|------------------------|------------------------|
|------------------------|------------------------|------------------------|

 |           |            |           |            |           |            
|------------------------|------------2---0-------|------------------------|
|------------------------|--------------------2---|3-----------3-----------|
|3-----------3-----------|0-----------------------|------------------------|
|------------------------|------------------------|------------------------|

 |           |            |           |            |           |            
|0-----------2---0-------|------------------------|------------------------|
|--------------------2---|------------------------|------------------------|
|------------------------|3-----------3-----------|------------------------|
|------------------------|------------------------|0-----------0-----------|

 |           |            |           |            |           |            
|------------------------|------------------------|------------------------|
|------------------------|------------------------|----------------0---2---|
|------------------------|------------------------|3-----------3-----------|
|1-----------1-----------|3-----------3-----------|------------------------|

 |           |            |           |            |           |            
|------------------------|------------------------|------------------------|
|3-----------3---2---0---|----------------0---2---|3-----------3---2---0---|
|------------------------|3-----------3-----------|------------------------|
|------------------------|------------------------|------------------------|

 |           |            |           |            |           |            
|------------------------|------------------------|------------------------|
|------------------------|------------------------|3-----------3-----------|
|3-----------3-----------|0-----------0-----------|------------------------|
|------------------------|------------------------|------------------------|

 |           |            |           |            |           |            
|0-----------2---0-------|------------------------|------------------------|
|--------------------2---|------------------------|------------------------|
|------------------------|3-----------3-----------|0-----------0-----------|
|------------------------|------------------------|------------------------|

 |           |            |           |            |           |            
|------------------------|0---2---0---------------|------------------------|
|3-----------3-----------|------------3---2---0---|------------------------|
|------------------------|------------------------|3-----------------------|
|------------------------|------------------------|------------------------|


Created with TablEdit http://www.tabledit.com/


     
Добавлено: 11.07.2013
Другие материалы по этой песне:
  • Аккорды и текст

Страница создана 11.07.2013
http://primanota.ru/shadows/midninght-chords.htm
Привет, Гость.
Предлагаем пройти революционный курс по гитаре.
Подарок от PrimaNota.Ru, забирай!