PrimaNota.ru - самый крупный в мире бесплатный архив песенных текстов, аккордов, табулатур и нот


Senses Fail - 187 - таба, бас-таба, видео

Регистрация Запомнить меня
Войти через:  Facebook Google Twitter Vk Yandex Mail.ru

Senses Fail - 187 - таба, бас-таба, видео

Печатать
Просмотров: 61
Artist:senses fail
Song:187

h = hammer
. = palm mute
~ = let note ring
x = mute


Guitar 1
------------------------------------------------------------------------------

Intro (0:01)
e|---------0--------------0----------------0-------------0--------| 
B|------3-----3-3------3----3-----------3----3--3-----3----3--3---| 
G|--2-2--2-----2---4-4--4-----2h4---0-0---0---0---0-0---0----0--0-| 
D|----------------------------------------------------------------|x14
A|----------------------------------------------------------------|
D|----------------------------------------------------------------|

Verse (1:19)
e|---------------------------------------------------------------------| 
B|---------------------------------------------------------------------| 
G|---------------------------------------------------------------------| 
D|-0------------------------------------------------------5-----5------|x4
A|-0-0-0-0-0-0-0-0-9-9-9-9-9-9-9-7h9-5-5-5-5-5-5-5-5--5-5-5-5-5-5------| 
D|-0-0-0-0-0-0-0-0-9-9-9-9-9-9-9-7h9-5-5-5-5-5-5-5-5--5-5-5-5-5-5------|
     . . . . . . . . . . . . . . . . . . . . . . . .  . .   . .

Chorus (1:41)
e|----------------------------------------------------------------| 
B|----------------------------------------------------------------| 
G|----------------------------------------------------------------| 
D|----------------------------------------------------------------|x2 
A|-9-9-9-9-9-9-9-9-5-5-5-5-5-5-5-5-0-0-0-0-0-0-0-0-4-4-4-4-4-4-4-4|
D|-9-9-9-9-9-9-9-9-5-5-5-5-5-5-5-5-0-0-0-0-0-0-0-0-4-4-4-4-4-4-4-4|

Intro (2:02)
e|---------0--------------0----------------0-------------0--------| 
B|------3-----3-3------3----3-----------3----3--3-----3----3--3---| 
G|--2-2--2-----2---4-4--4-----2h4---0-0---0---0---0-0---0----0--0-| 
D|----------------------------------------------------------------|x1
A|----------------------------------------------------------------|
D|----------------------------------------------------------------|

Fill one (2:07)
e|-------------------------------|
B|-------------------------------|
G|-------------------------------|
D|-0---------------------------9-|
A|-0-0-0-0-0-0-0-0-9-9-9-9-9-9-9-|x1
D|-0-0-0-0-0-0-0-0-9-9-9-9-9-9-9-|
     . . . . . . . . . . . . . 

Verse (2:12)
e|---------------------------------------------------------------------| 
B|---------------------------------------------------------------------| 
G|---------------------------------------------------------------------| 
D|-0------------------------------------------------------5-----5------|x3
A|-0-0-0-0-0-0-0-0-9-9-9-9-9-9-9-7h9-5-5-5-5-5-5-5-5--5-5-5-5-5-5------| 
D|-0-0-0-0-0-0-0-0-9-9-9-9-9-9-9-7h9-5-5-5-5-5-5-5-5--5-5-5-5-5-5------|
     . . . . . . . . . . . . . . . . . . . . . . . .  . .   . .

Chorus (2:28)
e|----------------------------------------------------------------| 
B|----------------------------------------------------------------| 
G|----------------------------------------------------------------| 
D|----------------------------------------------------------------|x2 
A|-9-9-9-9-9-9-9-9-5-5-5-5-5-5-5-5-0-0-0-0-0-0-0-0-4-4-4-4-4-4-4-4|
D|-9-9-9-9-9-9-9-9-5-5-5-5-5-5-5-5-0-0-0-0-0-0-0-0-4-4-4-4-4-4-4-4|

Fill two (2:48)
e|--------------------|
B|--------------------|
G|--------------------|
D|-555555555555-5x-5x-|
A|-555555555555-5x-5x-|x1
D|-555555555555-5x-5x-|
   ............

Chorus (2:51)
e|----------------------------------------------------------------| 
B|----------------------------------------------------------------| 
G|----------------------------------------------------------------| 
D|----------------------------------------------------------------|x4 
A|-9-9-9-9-9-9-9-9-5-5-5-5-5-5-5-x-0-0-0-0-0-0-0-0-4-4-4-4-4-4-4-4|
D|-9-9-9-9-9-9-9-9-5-5-5-5-5-5-5-x-0-0-0-0-0-0-0-0-4-4-4-4-4-4-4-4|

Chorus (3:31)
e|----------------------------------------------------------------| 
B|----------------------------------------------------------------| 
G|----------------------------------------------------------------| 
D|----------------------------------------------------------------|x2 
A|-9-9-9-9-9-9-9-9-5-5-5-5-5-5-5-5-0-0-0-0-0-0-0-0-4-4-4-4-4-4-4-4|
D|-9-9-9-9-9-9-9-9-5-5-5-5-5-5-5-5-0-0-0-0-0-0-0-0-4-4-4-4-4-4-4-4|

Outro (3:51)
e|---------|
B|---------|
G|---------|
D|-4~------|x4
A|-4~-55-5-|
D|-4~-55-5-|
   .  .. .

End On (4:00)
e|----|
B|----|
G|----|
D|-4~-|x1
A|-4~-|
D|-4~-|
   
Guitar 2
-------------------------------------------------------------------------------

Intro (0:23)
e|--12--12---12---12---10--10--10---10--9h10--9---9---9---9---9---9---9-----|
B|----10---10---10---10---10--10--10--10----10--10--10--10--10--10--10--10--|
G|--------------------------------------------------------------------------|
D|--------------------------------------------------------------------------|x8
A|--------------------------------------------------------------------------|
D|--------------------------------------------------------------------------|

Verse (1:19)
e|---------------------------------------------------------------------| 
B|---------------------------------------------------------------------| 
G|---------------------------------------------------------------------| 
D|-0------------------------------------------------------5-----5------|x4
A|-0-0-0-0-0-0-0-0-9-9-9-9-9-9-9-7h9-5-5-5-5-5-5-5-5--5-5-5-5-5-5------| 
D|-0-0-0-0-0-0-0-0-9-9-9-9-9-9-9-7h9-5-5-5-5-5-5-5-5--5-5-5-5-5-5------|
     . . . . . . . . . . . . . . . . . . . . . . . .  . .   . .

Chorus (1:41)
e|---------------------------------------------|
B|---------------------------------------------|
G|-1111111111111111111111111111-77777777777777-|
D|--x-x-x-x-x-x-x-x-x-x-x-x-x-x-xxxxxxxxxxxxxx-|
A|--9-9-9-9-9-9-9-9-9-9-9-9-9-9-55555555555555-|
D|---------------------------------------------|
   Cont.
e|-------------------------------------------------|
B|-------------------------------------------------|
G|-7777-9999-11111111-12121212-9999-7777-6666-7777-|
D|-xxxx-xxxx--x-x-x-x--x-x-x-x-xxxx-xxxx-xxxx-xxxx-|x2
A|-5555-7777--9-9-9-9-10101010-7777-5555-4444-5555-|
D|-------------------------------------------------|

Fill one (2:07)
e|-------------------------------|
B|-------------------------------|
G|-------------------------------|
D|-0---------------------------9-|
A|-0-0-0-0-0-0-0-0-9-9-9-9-9-9-9-|x1
D|-0-0-0-0-0-0-0-0-9-9-9-9-9-9-9-|
     . . . . . . . . . . . . . 

Verse (2:12)
e|---------------------------------------------------------------------| 
B|---------------------------------------------------------------------| 
G|---------------------------------------------------------------------| 
D|-0------------------------------------------------------5-----5------|x1
A|-0-0-0-0-0-0-0-0-9-9-9-9-9-9-9-7h9-5-5-5-5-5-5-5-5--5-5-5-5-5-5------| 
D|-0-0-0-0-0-0-0-0-9-9-9-9-9-9-9-7h9-5-5-5-5-5-5-5-5--5-5-5-5-5-5------|
     . . . . . . . . . . . . . . . . . . . . . . . .  . .   . .

Then (2:18)
e|---------0--------------0----------------0-------------0--------| 
B|------3-----3-3------3----3-----------3----3--3-----3----3--3---| 
G|--2-2--2-----2---4-4--4-----2h4---0-0---0---0---0-0---0----0--0-| 
D|----------------------------------------------------------------|x2
A|----------------------------------------------------------------|
D|----------------------------------------------------------------|
    . . .. .  ...  . . .. . . . .   . . . .. .. . . . . .. . .. .

Chorus (2:28)
e|---------------------------------------------|
B|---------------------------------------------|
G|-1111111111111111111111111111-77777777777777-|
D|--x-x-x-x-x-x-x-x-x-x-x-x-x-x-xxxxxxxxxxxxxx-|
A|--9-9-9-9-9-9-9-9-9-9-9-9-9-9-55555555555555-|
D|---------------------------------------------|
   Cont.
e|-------------------------------------------------|
B|-------------------------------------------------|
G|-7777-9999-11111111-12121212-9999-7777-6666-7777-|
D|-xxxx-xxxx--x-x-x-x--x-x-x-x-xxxx-xxxx-xxxx-xxxx-|x2
A|-5555-7777--9-9-9-9-10101010-7777-5555-4444-5555-|
D|-------------------------------------------------|

Fill two (2:48)
e|--------------------|
B|--------------------|
G|--------------------|
D|-555555555555-5x-5x-|
A|-555555555555-5x-5x-|x1
D|-555555555555-5x-5x-|
   ............

Chorus (2:51)
e|---------------------------------------------|
B|---------------------------------------------|
G|-1111111111111111111111111111-77777777777777-|
D|--x-x-x-x-x-x-x-x-x-x-x-x-x-x-xxxxxxxxxxxxxx-|
A|--9-9-9-9-9-9-9-9-9-9-9-9-9-9-55555555555555-|
D|---------------------------------------------|
   Cont. (add pause here)
e|-------------------------------------------------|
B|-------------------------------------------------|
G|-7777-9999-11111111-12121212-9999-7777-6666-7777-|
D|-xxxx-xxxx--x-x-x-x--x-x-x-x-xxxx-xxxx-xxxx-xxxx-|x2
A|-5555-7777--9-9-9-9-10101010-7777-5555-4444-5555-|
D|-------------------------------------------------|

Then (3:11)
e|----------------------------------------------------|
B|----------------------------------------------------|
G|-1111111111111111-12121212-14141414-66666666-7777-9-|
D|--x-x-x-x-x-x-x-x--x-x-x-x--x-x-x-x-xxxxxxxx-xxxx-x-|
A|--9-9-9-9-9-9-9-9-10101010-12121212-44444444-5555-7-|
D|----------------------------------------------------|
  Cont.
e|-------------------------------------------------|
B|-------------------------------------------------|
G|-7777-9999-11111111-12121212-9999-7777-6666-7777-|
D|-xxxx-xxxx--x-x-x-x--x-x-x-x-xxxx-xxxx-xxxx-xxxx-|x2
A|-5555-7777--9-9-9-9-10101010-7777-5555-4444-5555-|
D|-------------------------------------------------|

Then (3:31)
e|------------------------------------------------------|
B|------------------------------------------------------|
G|-1414141414141414-12121212-11111111-9999-777777777777-|
D|- x-x-x-x-x-x-x-x--x-x-x-x--x-x-x-x-xxxx-xxxxxxxxxxxx-|x4
A|-1212121212121212-10101010--9-9-9-9-7777-555555555555-|
D|------------------------------------------------------|

Outro (3:51)
e|------------------------------------|
B|------------------------------------|
G|--1111111111111111-1212121212121212-|
D|---x-x-x-x-x-x-x-x--x-x-x-x-x-x-x-x-|x4
A|---9-9-9-9-9-9-9-9-1010101010101010-|
D|------------------------------------|

End on (4:00)
e|-----|
B|-----|
G|-11~-|
D|--x~-|x1
A|--9~-|
D|-----|
Добавлено: 21.06.2013
Другие материалы по этой песне:
  • Аккорды и текст

Страница создана 21.06.2013
http://primanota.ru/senses-fail/187-chords.htm
Привет, Гость.
Предлагаем пройти революционный курс по гитаре.
Подарок от PrimaNota.Ru, забирай!