PrimaNota.ru - самый крупный в мире бесплатный архив песенных текстов, аккордов, табулатур и нот


Senses Fail - Mi Amor - таба, видео

Регистрация Запомнить меня
Войти через:  Facebook Google Twitter Vk Yandex Mail.ru

Senses Fail - Mi Amor - таба, видео

Печатать
Просмотров: 192
Artist: Senses Fail
Song: Mi Amor
Album: Renancer
Tuning: Drop C

Really awesome track from their new album and if you haven't checked out the great music
video for it yet I highly recommend you do! Anyway not much in the way of set up or
anything so lets get started!

INTRO/CHORUS
This can be played a couple of different ways across various strings but I personally
prefer this way. The key to making this sound right and in time is to slide down to each
note - if you try and play along with the lead vocal or what 'should' be in time, it 
will be ever so slightly off. Just play around with it and once you get the feel down it makes
sense. But basically whenever you go down the neck, slide there.
D|--------------------------------------------------------------------|
A|--------------------------------------------------------------------|
F|--------------------------------------------------------------------|
C|-12-12-12-12/10-10/7-7-7-8-5--------12-12-12-12/10-10--15-15-14-----|
G|--------------------------------------------------------------------|
C|--------------------------------------------------------------------|

D|--------------------------------------------------------------------------|
A|--------------------------------------------------------------------------|
F|--------------------------------------------------------------------------|
C|--15-15/14-14/12-12/10-10-12-12/10-10/7----8-8/7-7/5-5/3-3-8-8-7-5-5-7-7--|
G|--------------------------------------------------------------------------|
C|--------------------------------------------------------------------------|

And the rhythm guitar is doing this
D|----------------------------------------------------------------|
A|----------------------------------------------------------------|
F|----------------------------------------------------------------|
C|---0-0-0--8-8-8--3-3-3--7-7-7----------888888--7777777----------|
G|---0-0-0--8-8-8--3-3-3--7-7-7----------888888--7777777----------|
C|---0-0-0--8-8-8--3-3-3--7-7-7---x4-----888888--7777777----------|

RIFF 1
D|-----------------------------------|
A|-----------------------------------|
F|-----------------------------------|
C|--8-7-0000000--3333333--6666666----|
G|--8-7-0000000--3333333--6666666----|
C|--8-7-0000000--3333333--6666666----|


VERSE
There are a few times where the palm mute is lifted and the 'fuller' chord is slowly
peeled off - I've done my best to demonstrate that here but you get the idea
D|---------------------------------------------|
A|------------------------------------3333-----|
F|----------------------------------222222-----|
C|--------------------------------00000000-----|
G|--4-1-3-00000000--------4-1-3-0000000000-----|
C|--4-1-3-00000000--------4-1-3-0000000000-----|
          ........              ..........

I wont make the tab messy and long by copy pasting - you just play what you already know
again as follows:
INTRO/CHORUS
RIFF 1
VERSE
INTRO/CHORUS

1:52
D|----------------------------|
A|----------------------------|
F|----------------------------|
C|--0------8------0------3----|
G|--0------8------0------3----|
C|--0------8------0------3----|

This is also played faintly over the vocals when they come in
D|---------------------------------------|
A|--3-5-6-5---3-5-6-8-10-8----10---8-----|
F|---------------------------------------|
C|---------------------------------------|
G|---------------------------------------|
C|---------------------------------------|

VERSE
Slight variation on second run through with some cheeky harmonics at the end
D|----------------------------------------------------------|
A|----------------------------------------------------------|
F|--------------------------------------------------<5>-----|
C|--------------------------------------------------<5>-----|
G|--4-1-3-000000000-----4-1-3--0-000-000-000-0000-----------|
C|--4-1-3-000000000-----4-1-3--0-000-000-000-0000-----------|
          .........            . ... ... ... ....

Then back to INTRO/CHORUS x2

Outro
Let the opens ring - just listen to the track and learn the timings
D|------------------------------------------------------------------------|
A|------------------------------------------------------------------------|
F|------------------------------------------------------------------------|
C|------------------------------------------------------------------------|
G|--0-0-0--4-1-3-----0-0-0--4-1-3-----0-0--4-1-3-----0-0-0--4-1-3--4-1-3--|
C|--0-0-0--4-1-3-----0-0-0--4-1-3-----0-0--4-1-3-----0-0-0--4-1-3--4-1-3--|

D|---------------------------------------|
A|---------------------------------------|
F|---------------------------------------|
C|---------------------------------------|
G|----0--4-1-3----0-0-0--4-1-3-----------|
C|----0--4-1-3----0-0-0--4-1-3-----------|


And that's it! Just add a few slides in as transitions between the parts as necessary
and your away!

Please feel free to comment/correct and don't forget to rate! I'm going to be working on
the whole of the Renancer album but if there is anything anyone urgently wants please
let me know in the comments.
Добавлено: 05.07.2013
Другие материалы по этой песне:

Страница создана 05.07.2013
http://primanota.ru/senses-fail/mi-amor-chords.htm
Привет, Гость.
Предлагаем пройти революционный курс по гитаре.
Подарок от PrimaNota.Ru, забирай!