PrimaNota.ru - самый крупный в мире бесплатный архив песенных текстов, аккордов, табулатур и нот


Senses Fail - Battle Hymn - таба, видео

Регистрация Запомнить меня
Войти через:  Facebook Google Twitter Vk Yandex Mail.ru

Senses Fail - Battle Hymn - таба, видео

Печатать
Просмотров: 131
Уроки эстрадного вокала в Санкт-Петербурге
-------------------------------------------------------------------------------
			     Battle Hymn - Senses Fail
-------------------------------------------------------------------------------
Tabbed by: ChelseaRare
Email: chelseaarae@hotmail.com

Video: http://www.youtube.com/watch?v=cO148PE1DGM

This is how I play the song.  The video is a little different from the tab.
I don't play as many open Cs in the intro, but I think it's more accurate with them, 
I may be wrong.
The parts are missing from the intro and chorus. This is the best I can do
I guess you can use this as a reference if you wanna go for 100% accuracy.

Tuning: Drop C (CGCFAD)


INTRO

D|------|
A|------|
F|------|
C|-/15--|
G|-/15--|
C|-/15--|


(x3)
D|-----------------------------------|
A|-----------------------------------|
F|-----------------------------------|
C|-----------------------------------|
G|-----3-5---------------------------|
C|-0-0-----0-7-0-8-0--5h7p5-0-3-5-2--|


D|---------------|
A|---------------|
F|---------------|
C|-xxxx-xxxx-xx--|
G|-xxxx-xxxx-xx--|
C|-xxxx-xxxx-xx--|


(x3)
D|--------------------------------------------|
A|--------------------------------------------|
F|--------------------------------------------|
C|-12-12-10-12--------------------------------|
G|---------------12---13---10-12-10---8-10-7--|
C|-------------0----0----0----------0---------|


D|--------------------------------------------|
A|--------------------------------------------|
F|---------------------------10----10---9-10--|
C|-----------10------10-12--------------------|
G|---10-12--------12--------------------------|
C|-0-------0----0----------0----0-----0-------|


D|-------------------------------------------------------------------------------|
A|-------------------------------------------------------------------------------|
F|-10-10-9-10---7---9------------------10-10-9-10---7---12---10---9---10-9h10p9--|
C|----------------------10-12-10h12p10-------------------------------------------|
G|-------------------------------------------------------------------------------|
C|------------0---0---0---------------------------0---0----0----0---0------------|


D|---------------------------------------------------------------------------------|
A|-----------------------------------------8h10p8----------8h10p8------------------|
F|-10-10-9-10---7---9-----------------------------10-9-7-9--------10-9-7-9-10-9-7--|
C|----------------------10---12---10h12p10-----------------------------------------|
G|---------------------------------------------------------------------------------|
C|------------0---0---0----0----0--------------------------------------------------|


VERSE
(x2)
D|------------------|
A|------------------|
F|------------------|
C|-0~----8~----10~--|
G|-0~----8~----10~--|
C|-0~----8~----10~--|


(Figure out strumming patten yourself.  It's easy)
D|---------------------------------|
A|---------------------------------|
F|---9-10----10-12---7-14----------|
D|-0-x-x--10-x--x--5-x-x--5-3-5-3--|
G|-0-7-8--10-8--10-5-5-12-5-3-5-3--|
C|-0------10-------5------5-3-5-3--|


CHORUS
(x2)
D|-----------------5-----------------5---------------------5--------------------|
A|-5h6p5h6p5-----8---6-5h6p5h6p5-------8-6-5h6p5h6p5-----8---6-8h10p8-----------|
F|-----------7-5-----------------7-5-----------------7-5--------------10-9-7-9--|
C|------------------------------------------------------------------------------|
G|------------------------------------------------------------------------------|
C|------------------------------------------------------------------------------|


D|-----------------5-------------------------------------------|
A|-5h6p5h6p5-----8---6-8h10p8----------8h10p8------------------|
F|-----------7-5--------------10-9-7-9--------10-9-7-9-10-9-7--|
C|-------------------------------------------------------------|
G|-------------------------------------------------------------|
C|-------------------------------------------------------------|


VERSE

CHORUS


PRE-BRIDGE (Yeah.. I don't know what to call it lol)
Again, figure out strumming yourself
D|------------|
A|------------|
F|------------|
C|-8-5-3-2-0--|
G|-8-5-3-2-0--|
C|-8-5-3-2-0--|

BRIDGE
D|-----------------------------------------------------------|
A|-----------------------------------------------------------|
F|-----10~--9~--14~--11~--10~--9~--9~--9~--14~--11~--10~--9~-|
C|-0~--x----x---x----x----x----x---7~--x---x----x----x----x--|
G|-0~--8~---7~--12~--9~---8~---7~--7~--7~--12~--9~---8~---7~-|
C|-0~--------------------------------------------------------|


INTRO RIFF
Repeat how many times necessary...  I think it alternates every other time by leaving 
the last two or three notes
D|-----------------------------------|
A|-----------------------------------|
F|-----------------------------------|
C|-----------------------------------|
G|-----3-5---------------------------|
C|-0-0-----0-7-0-8-0--5h7p5-0-3-5-2--|


D|-----------|
A|-----------|
F|-10--------|
C|-x-(x18)---|
G|-8---------|
C|-----------|

CHORUS

INTRO RIFF (x3)


OUTRO
D|----------|
A|----------|
F|----------|
C|-0-0-0-1--|
G|-0-0-0-1--|
C|-0-0-0-1--|

(x3)
D|------------------|
A|------------------|
F|------------------|
C|-12-10-12-7-8-12--|
G|-12-10-12-7-8-12--|
C|-12-10-12-7-8-12--|

D|-------------|
A|-------------|
F|-------------|
C|-88-88-8-0~--|
G|-88-88-8-0~--|
C|-88-88-8-0~--|

| /  slide up
| h  hammer-on
| p  pull-off
| ~  let ring
| x  Mute note
===============================================================================
Добавлено: 01.12.2013
Другие материалы по этой песне:
  • Аккорды и текст

Страница создана 28.10.2013
http://primanota.ru/senses-fail/battle-hymn-chords.htm
Привет, Гость.
Предлагаем пройти революционный курс по гитаре.
Подарок от PrimaNota.Ru, забирай!