PrimaNota.ru - самый крупный в мире бесплатный архив песенных текстов, аккордов, табулатур и нот


Senses Fail - Angela Baker And My Obession With Fire - таба, видео

Регистрация Запомнить меня
Войти через:  Facebook Google Twitter Vk Yandex Mail.ru

Senses Fail - Angela Baker And My Obession With Fire - таба, видео

Печатать
Просмотров: 106
----------------------------------------------------------------------------
	Angela Baker and My Obsession With Fire  - Senses Fail
----------------------------------------------------------------------------
Tabbed by:Bryan
Email:woah0404@aol.com

Tuning:Drop D


Intro Guitar 1            X's 2                                X's 3  X's6 
e|0-------------|-0-0-0-0-0-0-0-0-|-0-0-0-0-0-0-0-0-|0-0-0-0-0-0-0-0-|----|
B|4--5-4-0-5-4-0|-5-4-0-5-4-0-5-4-|-7-4-0-7-4-0-7-4-|5-4-0-5-4-0-5-4-|---0|
G|7-------------|-----------------|-----------------|----------------|1h2-|
D|--------------|-----------------|-----------------|----------------|----|
A|--------------|-----------------|-----------------|----------------|----|
D|--------------|-----------------|-----------------|----------------|----|



Intro Guitar 2             1st time                2nd time
e|---------------------|--------------------|------------------------------|
B|---------------------|--------------------|------------------------------|
G|---------------------|--------------------|------------------------------|
D|4(X's-6)-6-6-7(X's-8)|xx-2(X's-8)-1(X's-8)|-\2-1-//Pickscrape\\----------|
A|4--------6-6-7-------|xx-2--------1-------|-\2-1-------------------------|
D|4--------6-6-7-------|xx-2--------1-------|-\2-1-------------------------|


Verse- Guitar 1   X's two

e|----0-0-0-------0-0-0------0-0-0-------0-0-0-----------------------------|
B|----5-4-2-------5-4-2------5-4-2-------5-4-7-----------------------------|
G|-------------------------------------------------------------------------|
D|4-4-------4-4-4--------2-2-------2-2-2-----------------------------------|
A|4-4-------4-4-4--------2-2-------2-2-2-----------------------------------|
D|4-4-------4-4-4--------2-2-------2-2-2-----------------------------------|


Verse- Guitar 2 X's two

e|-------------------------------------------------------------------------|
B|-------------------------------------------------------------------------|
G|-------------------------------------------------------------------------|
D|4-4-------4-4-4--------2-2-------2-2-2-----------------------------------|
A|4-4-------4-4-4--------2-2-------2-2-2-----------------------------------|
D|4-4-------4-4-4--------2-2-------2-2-2-----------------------------------|


Pre-Chorus- Guitar 1 X's two

e|-0/0-0-0-0/0-0-0--0-0-0-0-0----------------------------------------------|
B|-4/5-5-7-4/5-5-7-10-9-7-5-4----------------------------------------------|
G|-------------------------------------------------------------------------|
D|-------------------------------------------------------------------------|
A|-------------------------------------------------------------------------|
D|-------------------------------------------------------------------------|


Pre-Chorus- Guitar 2 X's two (palm muted)

e|-------------------------------------------------------------------------|
B|-------------------------------------------------------------------------|
G|---------2---------------------------------------------------------------|
D|4----2---2--2------------------------------------------------------------|
A|4----2---0--2------------------------------------------------------------|
D|4----2------2------------------------------------------------------------|

Bridge- Guitar 1

e|-------------------------------------------------------------------------|
B|---5-4-2-0---------------5-4-2-0-----------------------------------------|
G|-------------------------------------------------------------------------|
D|7---------------------7--------------------------------------------------|
A|7---------------------7--------------------------------------------------|
D|7---------------------7--------------------------------------------------|

Bridge- Guitar 2

e|-------------------------------------------------------------------------|
B|-------------------------------------------------------------------------|
G|-------------------------------------------------------------------------|
D|7---------4-----------7---------4----------------------------------------|
A|7---------4-----------7---------4----------------------------------------|
D|7---------4-----------7---------4----------------------------------------|

Bridge Pt. 2- Guitar 1 & 2 (Palm-muted) Rhythm not shown

e|-------------------------------------------------------------------------|
B|-------------------------------------------------------------------------|
G|-6-----------------------------------------------------------------------|
D|-6----7---2--------------------------------------------------------------|
A|-4----7---2--------------------------------------------------------------|
D|------7---2--------------------------------------------------------------|

Bridge Pt.3- Guitar 1 (Guitar 2 plays Pt.2)

e|------Times 2----------|-------------------------------------------------|
B|-----------------------|-------------------------------------------------|
G|13-13-13-11-11-11-9-9--|-8-8-8-8-9-9-9-9---------------------------------|
D|-x--x--x--x--x--x-x-x--|-x-x-x-x-x-x-x-x---------------------------------|
A|11-11-11--9--9--9-7-7--|-6-6-6-6-7-7-7-7---------------------------------|
D|-----------------------|-------------------------------------------------|

End- Both Guitars



e|-------------------------------------------------------------------------|
B|-------------------------------------------------------------------------|
G|-------------------------------------------------------------------------|
D|-2---------7---------1---------------------------------------------------|
A|-2---------7---------1---------------------------------------------------|
D|-2---------7---------1---------------------------------------------------|











Добавлено: 03.11.2013
Другие материалы по этой песне:
  • Аккорды и текст

Страница создана 03.11.2013
http://primanota.ru/senses-fail/angela-baker-and-my-obession-with-fire-chords.htm
Привет, Гость.
Предлагаем пройти революционный курс по гитаре.
Подарок от PrimaNota.Ru, забирай!