PrimaNota.ru - самый крупный в мире бесплатный архив песенных текстов, аккордов, табулатур и нот


Senses Fail - Shark Attack - текст песни, таба, драм-таба, видео

Регистрация Запомнить меня
Войти через:  Facebook Google Twitter Vk Yandex Mail.ru

Senses Fail - Shark Attack - текст песни, таба, драм-таба, видео

Печатать
Просмотров: 184
-------------------------------------------------------------------------------
                             SHARK ATTACK - Senses Fail
-------------------------------------------------------------------------------
Tabbed by: Matt_Youngman
Email:youngie324@hotmail.com

This is guitar one's part in the solo.

Tuning: CGCFAD

c|---------------------------------------------------------------------------|
G|---------------------------------------------------------------------------|
C|-----7---10-9-10-----10-12-14-12-10-12-------------------------------------|
F|---------------------------------------------------------------------------|
A|---------------------------------------------------------------------------|
D|---------------------------------------------------------------------------|

c|---------------------------------------------------------------------------|
G|---------------------------------------------------------------------------|
C|----17-17-17-15-14-15-14-15-14-12-14-14-12-10-9--14-12-10------------------|
F|---------------------------------------------------------14-12-10----------|
A|---------------------------------------------------------------------------|
D|---------------------------------------------------------------------------|

c|----17-15-13-12-13-15-17-15-13-12-13-15-17-15-13-12-13-15------------------|
G|---------------------------------------------------------------------------|
C|---------------------------------------------------------------------------|
F|---------------------------------------------------------------------------|
A|---------------------------------------------------------------------------|
D|---------------------------------------------------------------------------|

c|------17-15----------------------22----------------------------------------|
G|------------18-17-20-18-17-------------------------------------------------|
C|-----------------------------18--------------------------------------------|
F|---------------------------------------------------------------------------|
A|---------------------------------------------------------------------------|
D|---------------------------------------------------------------------------|



| /  slide up
| \  slide down
| h  hammer-on
| p  pull-off
| ~  vibrato
| +  harmonic
| x  Mute note
===============================================================================
Добавлено: 15.07.2012
Другие материалы по этой песне:

Страница создана 04.04.2012
http://primanota.ru/senses-fail/shark-attack-chords.htm
Привет, Гость.
Предлагаем пройти революционный курс по гитаре.
Подарок от PrimaNota.Ru, забирай!