PrimaNota.ru - самый крупный в мире бесплатный архив песенных текстов, аккордов, табулатур и нот


Senses Fail - All The Best Cowboys Have Daddy Issues - таба, бас-таба, видео

Регистрация Запомнить меня
Войти через:  Facebook Google Twitter Vk Yandex Mail.ru

Senses Fail - All The Best Cowboys Have Daddy Issues - таба, бас-таба, видео

Печатать
Просмотров: 58
This isn't one of my more favorite songs on this SWEET new
album, but it's good, and most of it's correct, though a 
FEW parts may be wrong.

Tabbed by: Oz


Drop-D Tuning

Guitars- 1 = Lead
       - 2 = Rhythm
(VERSE)

Lead & Rhythm

E|-----------------------------------------------|
B|-----------------------------------------------|
G|-----------------------------------------------|
D|----4------4---4-----4-----4------4---4-----4--|
A|--2---2--2---2---2-2-----2---2--2---2---2-2----|
D|-----------------------------------------------|
                   PM                     PM 

E|-----------------------------------------------|
B|-----------------------------------------------|
G|---------------------5--------------------5p4--|
D|----5------5---5-----------5------5---5--------|
A|--3---3--3---3---3-3-----3---3--3---3---3------|
D|-----------------------------------------------|
                   PM                     

E|-----------------------------------------------|
B|-----------------------------------------------|
G|-----------------------------------------------|
D|----4------4---4-----4-----4------4---4-----4--|
A|--2---2--2---2---2-2-----2---2--2---2---2-2----|
D|-----------------------------------------------|
                   PM                     PM 
(Pre-chorus)
Rhythm
E|-----------------------------------------------|
B|-----------------------------------------------|
G|--55555-55555555--77777-777777777--------------|
D|--55555-55555555--77777-777777777--------------|
A|--33333-33333333--55555-555555555--------------|
D|-----------------------------------------------|

Lead
E|-----------------------------------------------|
B|-----------------------------------------------|
G|--55555-555555555--77777-777777777-------------|
D|--xxxxx-xxxxxxxxx--xxxxx-xxxxxxxxx-------------|
A|--33333-333333333--55555-555555555-------------|
D|-----------------------------------------------|

(Chorus)
Rhythm
E|-----------------------------|
B|-----------------------------|
G|-----------------------------|
D|-2------5------0------7------|  (x2)
A|-2(x16)-5(x16)-0(x16)-7(x16)-|
D|-2------5------0------7------|

Lead
E|--------------------------------------------------------------------------|
B|--------------------------------------------------------------------------|
G|--------------------------------------------------------------------------|
D|-----7-6-8-7-6-7-(6)-7-6-(6)-8-7-5-7------7-6-8-7-6-7-(6)-7-6-(6)-8-7-5-7-|
A|--77------------------------------------77--------------------------------|
D|--------------------------------------------------------------------------|
                    PM      PM                          PM      PM

E|--------------------------------------------------------------------------|
B|--------------------------------------------------------------------------|
G|---------------------------------------------9-7-(7)-11-9-(9)-12-10-(10)--|
D|--------8-6-8-7-6-7-(6)-7-6-(6)-8-7-5-7---8-------------------------------|
A|---88---------------------------------------------------------------------|
D|--------------------------------------------------------------------------|
                      PM      PM                    PM      PM        PM

E|--------------------------|
B|--------------------------|
G|---14-12---12-11-12-------| (x2)
D|--------------------------|
A|--------------------------|
D|--------------------------|

(Verse)

Lead & Rhythm

E|-----------------------------------------------|
B|-----------------------------------------------|
G|-----------------------------------------------|
D|----4------4---4-----4-----4------4---4-----4--|
A|--2---2--2---2---2-2-----2---2--2---2---2-2----|
D|-----------------------------------------------|
                   PM                     PM 

E|-----------------------------------------------|
B|-----------------------------------------------|
G|---------------------5--------------------5p4--|
D|----5------5---5-----------5------5---5--------|
A|--3---3--3---3---3-3-----3---3--3---3---3------|
D|-----------------------------------------------|
                   PM          

E|-----------------------------------------------|
B|-----------------------------------------------|
G|-----------------------------------------------|
D|----4------4---4-----4-----4------4---4-----4--|
A|--2---2--2---2---2-2-----2---2--2---2---2-2----|
D|-----------------------------------------------|
                   PM                     PM 

E|-----------------------------------------------|
B|-----------------------------------------------|
G|---------------------5--------------------5p4--|
D|----5------5---5-----------5------5---5--------|
A|--3---3--3---3---3-3-----3---3--3---3---3------|
D|-----------------------------------------------|
                   PM     

(Pre-chorus)
Rhythm & Lead
    "I'm not waiting,  I'm not Waiting" (1:13)
E|-----------------------------------------------|
B|-----------------------------------------------|
G|-----------------------------------------------|
D|--2------------------22222222222222------------|
A|--2------------------22222222222222------------|
D|--2------------------22222222222222------------|
                       ******PM******

(Chorus)
Rhythm
E|-----------------------------|
B|-----------------------------|
G|-----------------------------|
D|-2------5------0------7------|  (x2)
A|-2(x16)-5(x16)-0(x16)-7(x16)-|
D|-2------5------0------7------|

Lead
E|--------------------------------------------------------------------------|
B|--------------------------------------------------------------------------|
G|--------------------------------------------------------------------------|
D|-----7-6-8-7-6-7-(6)-7-6-(6)-8-7-5-7------7-6-8-7-6-7-(6)-7-6-(6)-8-7-5-7-|
A|--77------------------------------------77--------------------------------|
D|--------------------------------------------------------------------------|
                    PM      PM                          PM      PM

E|--------------------------------------------------------------------------|
B|--------------------------------------------------------------------------|
G|---------------------------------------------9-7-(7)-11-9-(9)-12-10-(10)--|
D|--------8-6-8-7-6-7-(6)-7-6-(6)-8-7-5-7---8-------------------------------|
A|---88---------------------------------------------------------------------|
D|--------------------------------------------------------------------------|
                      PM      PM                    PM      PM        PM

E|--------------------------|
B|--------------------------|
G|---14-12---12-11-12-------| (x2)
D|--------------------------|
A|--------------------------|
D|--------------------------|


(BRIDGE)
Lead & Rhythm
E|-------------------------------------------------------------------------|
B|-------------------------------------------------------------------------|
G|---5555555555555555-7777777777777777-------------------------------------|
D|---5555555555555555-7777777777777777-----2-------5-------0-------7-------|
A|---3333333333333333-5555555555555555-----2-------5-------0-------7-------|
D|-----------------------------------------2-------5-------0-------7-------|


Rhythm
E|---------------------------------------|
B|---------------------------------------|
G|---------------------------------------|
D|---2--------5--------0--------7--------|
A|---2--------5--------0--------7--------|
D|---2--------5--------0--------7--------|


Lead
E|---8p0-5p0-7p0-3p0-5p0-2p0-4p0-1p0---8p0-5p0-7p0-3p0-5p0-2p0-3-2-0--------|
B|--------------------------------------------------------------------------|
G|--------------------------------------------------------------------------|
D|--------------------------------------------------------------------------|
A|--------------------------------------------------------------------------|
D|--------------------------------------------------------------------------|

E|---8p0-5p0-7p0-3p0-5p0-2p0-3-2-0---0-2-3-0-2-3-2-3--3-4-5-3-4-5-6/8-------|
B|--------------------------------------------------------------------------|
G|--------------------------------------------------------------------------|
D|--------------------------------------------------------------------------|
A|--------------------------------------------------------------------------|
D|--------------------------------------------------------------------------|

Rhythm
E|-----------------------------------------|
B|-----------------------------------------|
G|-----------------------------------------| (x2)
D|---(2)------(5)------(0)------(7)--------|
A|---(2)(x16)-(5)(x16)-(0)(x16)-(7)(x16)---|
D|---(2)------(5)------(0)------(7)--------|


Lead & Rhythm
E|---------|
B|---------|
G|---------|
D|---222---|
A|---222---|
D|---222---|


Lead
E|----------------|
B|----------------|
G|---11/12p9999---|  (x7)
D|----------------|
A|----------------|
D|----------------|

Rhythm
E|------------|
B|------------|
G|------------|
D|---4/11/0---|
A|---4/11/0---|
D|---4/11/0---|

Lead
E|------------------------------------------|
B|---10-10-10-11-9-9-9-10-7-7-7-9-5-5-5-5---|
G|------------------------------------------| 
D|------------------------------------------|
A|------------------------------------------|
D|------------------------------------------|

Rhythm
E|-------------------------------------|
B|-------------------------------------|
G|-------------------------------------|
D|---222-222-222-222-222-222-222-222---|
A|---222-222-222-222-222-222-222-222---|
D|---222-222-222-222-222-222-222-222---|

Lead
E|---------------------------------------|
B|---------------------------------------|
G|---55555555/77777777/99999999/11-------|
D|---xxxxxxxx/xxxxxxxx/xxxxxxxx/ x(x8)---|
A|---33333333/55555555/77777777/ 9-------|
D|---------------------------------------|

Rhythm
E|---------------------------------------|
B|---------------------------------------|
G|---55555555/77777777/99999999/11-------|  (x2)
D|---55555555/77777777/99999999/11(x8)---|
A|---33333333/55555555/77777777/ 9-------|
D|---------------------------------------|

(Chorus)
Rhythm
E|-----------------------------|
B|-----------------------------|
G|-----------------------------|
D|-2------5------0------7------|  (x2)
A|-2(x16)-5(x16)-0(x16)-7(x16)-|
D|-2------5------0------7------|

Lead
E|--------------------------------------------------------------------------|
B|--------------------------------------------------------------------------|
G|--------------------------------------------------------------------------|
D|-----7-6-8-7-6-7-(6)-7-6-(6)-8-7-5-7------7-6-8-7-6-7-(6)-7-6-(6)-8-7-5-7-|
A|--77------------------------------------77--------------------------------|
D|--------------------------------------------------------------------------|
                    PM      PM                          PM      PM

E|--------------------------------------------------------------------------|
B|--------------------------------------------------------------------------|
G|---------------------------------------------9-7-(7)-11-9-(9)-12-10-(10)--|
D|--------8-6-8-7-6-7-(6)-7-6-(6)-8-7-5-7---8-------------------------------|
A|---88---------------------------------------------------------------------|
D|--------------------------------------------------------------------------|
                      PM      PM                    PM      PM        PM

E|--------------------------|
B|--------------------------|
G|---14-12---12-11-12-------| (x2)
D|--------------------------|
A|--------------------------|
D|--------------------------|

Lead
E|------------------------------------------|
B|---10-10-10-11-9-9-9-10-7-7-7-9-5-5-5-5---|
G|------------------------------------------| 
D|------------------------------------------|
A|------------------------------------------|
D|------------------------------------------|

Rhythm
E|-------------------------------------|
B|-------------------------------------|
G|-------------------------------------|
D|---222-222-222-222-222-222-222-222---|
A|---222-222-222-222-222-222-222-222---|
D|---222-222-222-222-222-222-222-222---|

Lead & Rhythm
E|-------|
B|-------|
G|-------|
D|---2---|
A|---2---|
D|---2---|

E|---15-14-15-14-10---15-14-15-14-10---17-16-17-16-12---19-18-17-15-12--|
B|----------------------------------------------------------------------|
G|----------------------------------------------------------------------|(x2)
D|----------------------------------------------------------------------|
A|----------------------------------------------------------------------|
D|----------------------------------------------------------------------|

(interlude to next song)

E|---------15-------15--------------12-----12------------15-----15--------|
B|------12--------12-------12-----12-----12-----12-----12-----12-----12---|
G|---12--------12-------12-----12-----12-----12-----12-----12-----12------|
D|------------------------------------------------------------------------|
A|------------------------------------------------------------------------|
D|------------------------------------------------------------------------|
          
                                   The End





Добавлено: 05.07.2013
Другие материалы по этой песне:
  • Аккорды и текст

Страница создана 05.07.2013
http://primanota.ru/senses-fail/all-the-best-cowboys-have-daddy-issues-chords.htm
Привет, Гость.
Предлагаем пройти революционный курс по гитаре.
Подарок от PrimaNota.Ru, забирай!