PrimaNota.ru - самый крупный в мире бесплатный архив песенных текстов, аккордов, табулатур и нот


Royal Republic - You Aint Nobody Til Somebody Hates You - бас-таба, видео

Регистрация Запомнить меня
Войти через:  Facebook Google Twitter Vk Yandex Mail.ru

Royal Republic - You Aint Nobody Til Somebody Hates You - бас-таба, видео

Печатать
Просмотров: 126
Hey Guys, this is my Bass Tab to the Song 'You Ain't Nobody ('Til Somebody Hates You)'
by Royal Republic.
Check also my tabs to 'Save The Nation' and 'Full Steam Spacemachine'.
Have Fun and DON'T FORGET TO RATE! ;)

Verse
G|----------------|----------------|----------------|----------------|
D|----------------|----------------|----------------|----------------|
A|----------------|----------------|----------------|----------------|
E|3-3---3-3-3---3-|3-3---3-3-3---3-|3-3---3-3-3---3-|3-3---3-3-3---3-|
  E E E E E E E E  E E E E E E E E  E E E E E E E E  E E E E E E E E

G|----------------|----------------|----------------|----------------|
D|----------------|----------------|----------------|----------------|
A|3-3---3-3-3---3-|1-1---1-5-5---5-|----------------|----------------|
E|----------------|----------------|3-3---3-3-3---3-|3-3---3-3-3---3-|
  E E E E E E E E  E E E E E E E E  E E E E E E E E  E E E E E E E E

First Chorus (2x)
G|----------------|----------------|----------------|----------------|
D|----------------|----------------|----------------|----------------|
A|1~~~~~~~~~~~~~~~|3~~~~~~~--------|----------------|----------------|
E|----------------|--------5~~~~~~~|3~~~~~~~~~~~~~~~|~~~~~~~~~~~~~~~~|
  F                H       H        F                F

G|----------------|----------------|----------------|----------------|
D|----------------|----------------|----------------|----------------|
A|3~~~~~~~~~~~~~~~|1~~~~~~~--------|----------------|----------------|
E|----------------|--------1~~~~~~~|3~~~~~~~~~~~~~~~|----------------|
  F                H       H        F                F

Verse
Second Chorus (2x)
G|----------------|----------------|----------------|----------------|
D|----------------|----------------|----------------|----------------|
A|1-1-1-1-1-1-1-1-|3-3-3-3---------|----------------|----------------|
E|----------------|--------5-5-5-5-|3-3-3-3-3-3-3-3-|3-3-3-3-3-3-3-3-|
  E E E E E E E E  E E E E E E E E  E E E E E E E E  E E E E E E E E

G|----------------|----------------|----------------|----------------|
D|----------------|----------------|----------------|----------------|
A|3-3-3-3-3-3-3-3-|1-1-1-1---------|----------------|----------------|
E|----------------|--------1-1-1-1-|3-3---3-3-3---3-|3-3---3-3-3-X-X-|
  E E E E E E E E  E E E E E E E E  E E E E E E E E  E E E E E E E E

Breakdown
G|----------------|----------------|----------------|----------------|
D|----------------|----------------|----------------|----------------|
A|1-1-1-1-1-1-1-1-|3-3-3-3---------|----------------|----------------|
E|----------------|--------5-5-5-5-|3-3-3-3-3-3-----|3-3-3-3-3-3-----|
  E E E E E E E E  E E E E E E E E  E E E E E E Q    E E E E E E Q

G|----------------|----------------|----------------|----------------|
D|----------------|----------------|----------------|----------------|
A|1-1-1-1-1-1-1-1-|4-4-4-4-7-7-7-7-|----------------|----------------|
E|----------------|----------------|3-3-3-3-3-3-----|3-3-3-3-3-3-----|
  E E E E E E E E  E E E E E E E E  E E E E E E Q    E E E E E E Q

G|----------------|----------------|----------------|----------------|
D|----------------|----------------|----------------|----------------|
A|1-1-1-1-1-1-1-1-|3-3-3-3---------|----------------|----------------|
E|----------------|--------5-5-5-5-|3-3-3-3-3-3-----|3-3-3-3-3-3-----|
  E E E E E E E E  E E E E E E E E  E E E E E E Q    E E E E E E Q

G|----------------|----------------|----------------|----------------|
D|----------------|----------------|----------------|----------------|
A|1-1-1-1-1-1-1-1-|4-4-4-4-7-7-7-7-|----------------|----------------|
E|----------------|----------------|3-3-3-3-3-3-15\3|3-3-3-3-3-3-15\3|
  E E E E E E E E  E E E E E E E E  E E E E E E Q    E E E E E E Q

G|----------------|----------------|----------------|----------------|
D|----------------|----------------|----------------|----------------|
A|----------------|----------------|----------------|----------------|
E|3-3-3-3-3-3-3-3-|3-3-3-3-3-3-15\3|3-3-3-3-3-3-15\3|3-3-3-3-3-3-15\3|
  E E E E E E E E  E E E E E E Q    E E E E E E Q    E E E E E E Q

G|----------------|----------------|----------------|----------------|
D|----------------|----------------|----------------|----------------|
A|----------------|----------------|----------------|----------------|
E|3-3-3-3-3-3-3-3-|3-3-3-3-3-3-15~~|~~~~~~~~~~~~~~~~|~~~~~~~~~~~~~~~\|
  E E E E E E E E  E E E E E E Q    F                F

Third Chorus = Second Chorus (2x)

Outro
G|----------------|----------------|----------------|----------------|
D|----------------|----------------|----------------|----------------|
A|1-1-1-1-1-1-1-1-|3-3-3-3---------|----------------|----------------|
E|----------------|--------5-5-5-5-|3-3-3-3-3-3-3-3-|3-3-3-3-3-3-3-3-|
  E E E E E E E E  E E E E E E E E  E E E E E E E E  E E E E E E E E

G|----------------|----------------|----------------|----------------|
D|----------------|----------------|----------------|----------------|
A|3-3-3-3-3-3-3-3-|1-1-1-1---------|----------------|----------------|
E|----------------|--------1-1-1-1-|3-3-3-3-3-3-3-3-|----------------|
  E E E E E E E E  E E E E E E E E  E E E E E E E E  F

G|----------------|----------------|----------------|----------------|
D|----------------|----------------|----------------|----------------|
A|1-1-1-1-1-1-1-1-|3-3-3-3---------|----------------|----------------|
E|----------------|--------5-5-5-5-|3-3-3-3-3-3-3-3-|3-3-3-3-3-3-3-3-|
  E E E E E E E E  E E E E E E E E  E E E E E E E E  E E E E E E E E

G|----------------|----------------|----------------|----------------|
D|----------------|----------------|----------------|----------------|
A|3-3-3-3-3-3-3-3-|1-1-1-1---------|----------------|----------------|
E|----------------|--------1-1-1-1-|3-3-3-3-3-3-15\3|3-3-3-3-3-3-15\3|
  E E E E E E E E  E E E E E E E E  E E E E E E Q    E E E E E E Q

G|----------------|----------------|----------------|----------------|
D|----------------|----------------|----------------|----------------|
A|----------------|----------------|----------------|----------------|
E|3-3-3-3-3-3-3-3-|3-3-3-3-3-3-15\3|3-3-3-3-3-3-15\3|3-3-3-3-3-3-15\3|
  E E E E E E E E  E E E E E E Q    E E E E E E Q    E E E E E E Q

G|----------------|----------------|----------------|
D|----------------|----------------|----------------|
A|----------------|----------------|----------------|
E|3-3-3-3-3-3-3-3-|3-3-3-3-3-3-15b~|~~~~~~~~--------|
  E E E E E E E E  E E E E E E Q    H       H

F = Full note
H = Half note
Q = Quarter note
E = Eighth note
S = Sixteenth note
. = makes the note a half longer
\ = Slide up
/ = Slide down
h = Hammer-on
p = Pull-off
b = Bending
X = Mute note
Добавлено: 03.11.2013
Другие материалы по этой песне:
  • Аккорды и текст

Страница создана 03.11.2013
http://primanota.ru/royal-republic/you-aint-nobody-til-somebody-hates-you-chords.htm
Привет, Гость.
Предлагаем пройти революционный курс по гитаре.
Подарок от PrimaNota.Ru, забирай!