PrimaNota.ru - самый крупный в мире бесплатный архив песенных текстов, аккордов, табулатур и нот


Rival Sons - Get Mine - таба, бас-таба, видео

Регистрация Запомнить меня
Войти через:  Facebook Google Twitter Vk Yandex Mail.ru

Rival Sons - Get Mine - таба, бас-таба, видео

Печатать
Просмотров: 115
Уроки эстрадного вокала в Санкт-Петербурге
-------------------------------------------------------------------------------
                             GET MINE - Rival Sons
-------------------------------------------------------------------------------
Tabbed by: Joe Dott
E-mail: josephdott@hotmail.com

Tuning: Half Step Down

d#|------------------|
A#|------------------|
F#|------------------|
C#|------------------|
G#|------------------|
D#|------------------|


Intro

|---------------------------------------------------------------------------|
|-----5----5----5-----------------------------------------------------------|
|-----7b9--7b9--7b9-7p5----5~~~---------------------------------------------|
|-----------------------7---------------------------------------------------|
|---------------------------------------------------------------------------|
|---------------------------------------------------------------------------|


|---------------------------------------------------------------------------|
|---------------------------------------------------------------------------|
|---------------------------------------------------------------------------|
|---------------------------------------------------------------------------|
|----0-----0--3--0--3--5--3--5b7r5--3--0------------------------------------|
|-------3-------------------------------------------------------------------|


|---------------------------------------------------------------------------|
|----------------------7----7hb---------------------------------------------|
|-----7--5--7s9--7--9----9-------9--7---------------------------------------|
|---------------------------------------------------------------------------|
|---------------------------------------------------------------------------|
|---------------------------------------------------------------------------|

Verse 1

|---------------------------------------------------------------------------|
|----------------------------3-3-3------------------------------------------|
|---2-2-----2--2---2--2---2--2-2-2------------------------------------------|
|---2-2-----2--2---2--2---2--0-0-0--------x3--------------------------------|
|---0-0-----0--0---0--0---0-------------------------------------------------|
|--------3-------3------3---------------------------------------------------|

|---------------------------------------------------------------------------|
|-------------------3~------------------------------------------------------|
|---2-2-----2--2----2~------------------------------------------------------|
|---2-2-----2--2----0~------------------------------------------------------|
|---0-0-----0--0------------------------------------------------------------|
|--------3-------3----------------------------------------------------------|


|---------------------------------------------------------------------------|
|---------------------------------------------------------------------------|
|------2--5--7--------------------------------------------------------------|
|---5--2--5--7--------x4----------------------------------------------------|
|---5--0--3--5--------------------------------------------------------------|
|---3-----------------------------------------------------------------------|

Pre-Chorus

|---------------------------------------------------------------------------|
|-----5----5----5-----------------------------------------------------------|
|-----7b9--7b9--7b9-7p5----5~~~---------------------------------------------|
|-----------------------7---------------------------------------------------|
|---------------------------------------------------------------------------|
|---------------------------------------------------------------------------|

Chorus

|---------------------------------------------------------------------------|
|---------------------------------------------------------------------------|
|---------------------------------------------------------------------------|
|-------------------------------------------------x4------------------------|
|----0-----0--3--0--3--5--3--5b7r5--3--0------------------------------------|
|-------3-------------------------------------------------------------------|

Verse 2

|---------------------------------------------------------------------------|
|----------------------------3-3-3------------------------------------------|
|---2-2-----2--2---2--2---2--2-2-2------------------------------------------|
|---2-2-----2--2---2--2---2--0-0-0--------x3--------------------------------|
|---0-0-----0--0---0--0---0-------------------------------------------------|
|--------3-------3------3---------------------------------------------------|

|---------------------------------------------------------------------------|
|-------------------3~------------------------------------------------------|
|---2-2-----2--2----2~------------------------------------------------------|
|---2-2-----2--2----0~------------------------------------------------------|
|---0-0-----0--0------------------------------------------------------------|
|--------3-------3----------------------------------------------------------|

|---------------------------------------------------------------------------|
|---------------------------------------------------------------------------|
|------2--5--7--------------------------------------------------------------|
|---5--2--5--7--------x4----------------------------------------------------|
|---5--0--3--5--------------------------------------------------------------|
|---3-----------------------------------------------------------------------|

Pre-Chorus

|---------------------------------------------------------------------------|
|-----5----5----5-----------------------------------------------------------|
|-----7b9--7b9--7b9-7p5----5~~~---------------------------------------------|
|-----------------------7---------------------------------------------------|
|---------------------------------------------------------------------------|
|---------------------------------------------------------------------------|

Chorus

|---------------------------------------------------------------------------|
|---------------------------------------------------------------------------|
|---------------------------------------------------------------------------|
|-------------------------------------------------x4------------------------|
|----0-----0--3--0--3--5--3--5b7r5--3--0------------------------------------|
|-------3-------------------------------------------------------------------|


Quick Solo

Then -

|---------------------------------------------------------------------------|
|---------------------------------------------------------------------------|
|---------------------7-7-7-------------------------------------------------|
|---------------------7-7-7-------x2----------------------------------------|
|--0-0---0-0---0---0--5-5-5-------------------------------------------------|
|------3-----3---3----------------------------------------------------------|


Chorus

|---------------------------------------------------------------------------|
|---------------------------------------------------------------------------|
|---------------------------------------------------------------------------|
|-------------------------------------------------x4------------------------|
|----0-----0--3--0--3--5--3--5b7r5--3--0------------------------------------|
|-------3-------------------------------------------------------------------|

Rock on!!

************************************

| s   slide up
| \   slide down
| h   hammer-on
| p   pull-off
| ~   vibrato
| +   harmonic
| x   Mute note
| b   Bend
| hb  half-bend
| br  Bend release
| pbr Pre-bend release
| brb Bend release bend

************************************
Добавлено: 27.10.2013
Другие материалы по этой песне:
  • Аккорды и текст

Страница создана 27.10.2013
http://primanota.ru/rival-sons/get-mine-chords.htm
Привет, Гость.
Предлагаем пройти революционный курс по гитаре.
Подарок от PrimaNota.Ru, забирай!