PrimaNota.ru - самый крупный в мире бесплатный архив песенных текстов, аккордов, табулатур и нот


Rival Sons - Get Whats Coming - таба, видео

Регистрация Запомнить меня
Войти через:  Facebook Google Twitter Vk Yandex Mail.ru

Rival Sons - Get Whats Coming - таба, видео

Печатать
Просмотров: 237
Авторы: Jay Buchanan, Scott Holliday

-------------------------------------------------------------------------------
                       GET WHAT'S COMING- Rival Sons
-------------------------------------------------------------------------------
Tabbed by: Theo Wildgoose
E-mail: twildgoose@gmail.com

Tuning: Eb Ab Db Gb Bb Eb

Scott uses a Jetslide to allow him to play chords and slide lead parts in the solo.

Intro

0:00-0:10

eb|------|
Bb|------|
Gb|--9---| sixteenth notes
Db|--9---|
Ab|--7---|
Eb|------|

0:11 riff kicks in

eb|---------------------------------------------------------------------------|
Bb|---------------------------------------------------------------------------|
Gb|---------------------------------------------------------------------------|
Db|----------5~-------------------------------5~----------------9-8-7-5-7-5---|
Ab|--7-7-5-7----7-5-7--7-5-7-----5-7----7-5-7----7-5-7--7-5-7---------------7-|
Eb|--------------------------5-7-----0----------------------------------------|

eb|---------------------------------------------------------------------------|
Bb|---------------------------------------------------------------------------|
Gb|---------------------------------------------------------------7-9---------|
Db|---------5~-------------------------------5~--------5-5-5-7-5--7-9---------|
Ab|-7-7-5-7----7-5-7--7-5-7------5-7---7-5-7----7-5-7--5-5-5-7-5--5-7---------|
Eb|--------------------------0-5-----0-----------------3-3-3-5-3--------------|

 
  0:33

eb|----------------------------------|----------------------------------------|
Bb|----------------------------------|----------------------------------------|
Gb|--------------------------------9-|----------------------------------------|
Db|---------5~---------------------7-|----------5~----------------------------|
Ab|-7-7-5-7---7-5-7-7-5-7-----5-7--9-|--7-7-5-7----7-5-7-7-5-7-----5-7v-------|
Eb|-----------------------5-7------0-|-------------------------5-7------------|

eb|---------------------------------------------------------------------------|
Bb|---------------------------------------------------------------------------|
Gb|--------------------------------5-5-5-5--8-8-8-----------------------------|
Db|---------5~---------------------5-5-5-5--8-8-8-----------------------------| x2
Ab|-7-7-5-7---7-5-7-7-5-7-----5-7--3-3-3-3--6-6-6-----------------------------|
Eb|-----------------------5-7-------------------------------------------------|

eb|---------------------------------------------------------------------------|
Bb|---------------------------------------------------------------------------|
Gb|-----------------------------------------------7--9------------------------|
Db|-9-8-7-5-7-5----------5~---------5-5-5--7--5---7--9------------------------|
Ab|-------------7--7-5-7----7-5-7---5-5-5--7--5---5--7------------------------|
Eb|---------------------------------3-3-3--5--3-------------------------------|

Repeat for second verse/chorus

slide solo 2:02

eb|---15/17-15/17\15-14-14/15\14--/12---/14-/15-/17\15\\----------------------|
Bb|---------------------------------------------------------------------------|
Gb|---------------------------------------------------------------------------|
Db|---------------------------------------------------------------------------|
Ab|---------------------------------------------------------------------------|
Eb|---------------------------------------------------------------------------|

eb|---/19\17-15-17-14-15-14-15-14\10/12\--------------------------------------|
Bb|---------------------------------------------------------------------------|
Gb|---------------------------------------------------------------------------|
Db|---------------------------------------------------------------------------|
Ab|---------------------------------------1/----------------------------------|
Eb|---------------------------------------1/----------------------------------|
                                          slide up neck w/ vibrato


  Solo 2:40

eb|-----------|----------12--/15----/12-|------------|--------------------------|
Bb|-----------|-------12-----/15----/12-|------------|--------------9/12\9------|
Gb|-9-9-9-9-9-|---/12---------------/12-|--9-9-9-9-9-|------9--9/12-9/12\9------|
Db|-9-9-9-9-9-|-------------------------|--9-9-9-9-9-|----9----9/12-9/12\9------|
Ab|-7-7-7-7-7-|-------------------------|--7-7-7-7-7-|-/9-----------------------|
Eb|-----------|-------------------------|------------|--------------------------|

eb|---------------|
Bb|---------------|
Gb|-9-9-9-9-9-9-9-|
Db|-9-9-9-9-9-9-9-|
Ab|-7-7-7-7-7-7-7-|
Eb|---------------|
                  
You sit on your fence and you scream about justice

3:02

eb|---------------------------------------------------------------|
Bb|---------------------------------------------------------------|
Gb|--9-9-9-9-9-9\\------------------------------------------------|
Db|--9-9-9-9-9-9\\------------------------------------------------|
Ab|--7-7-7-7-7-7\\------------------------------------------------|
Eb|---------------------------------------------------------------|
                 Slide down neck, pick alternately on g and b strings


 Riff kicks back in at 3:13
eb|---------------------------------------------------------------|
Bb|---------------------------------------------------------------|
Gb|---------------------------------------------------------------|
Db|-----------5~--------------------------5-----------------------| etc as with intro
Ab|---7-7-5-7----7-5-7-------5-7----7-5-7---7-5-7-----5-7---------|
Eb|----------------------5-7-----0----------------5-7-----0-------|

 end on 

eb|---------------------------------------------------------------|
Bb|---------------------------------------------------------------|
Gb|----------------7-9----7-----7--9------------------------------|
Db|--5--5-5---7-5--7-9----7--7--7--9------------------------------|
Ab|--5--5-5---7-5--5-7----5--7--5--7------------------------------|
Eb|--3--3-3---5-3------------5------------------------------------|



************************************

| /   slide up
| \   slide down
| h   hammer-on
| p   pull-off
| ~   vibrato
| +   harmonic
| x   Mute note
| b   Bend
| pb  Pre-bend
| br  Bend release
| pbr Pre-bend release
| brb Bend release bend

************************************
Добавлено: 02.05.2015
Другие материалы по этой песне:
  • Аккорды и текст

Страница создана 02.05.2015
http://primanota.ru/rival-sons/get-whats-coming-chords.htm
Привет, Гость.
Предлагаем пройти революционный курс по гитаре.
Подарок от PrimaNota.Ru, забирай!