PrimaNota.ru - самый крупный в мире бесплатный архив песенных текстов, аккордов, табулатур и нот


Rival Sons - Open My Eyes - таба, бас-таба, видео

Регистрация Запомнить меня
Войти через:  Facebook Google Twitter Vk Yandex Mail.ru

Rival Sons - Open My Eyes - таба, бас-таба, видео

Печатать
Просмотров: 387
-------------------------------------------------------------------------------
                             OPEN MY EYES - Rival Sons
-------------------------------------------------------------------------------
Tabbed by: Theo
E-mail: twildgoose@gmail.com

Tuning:EADGBE
Intro riff
e|-------------------------------------------------------------------------------|
B|-------------------------------------------------------------------------------|
G|-------------------------------------------------------------------------------|
D|-------------------------------------------------------------------------------|
A|--5--3----------------------------5--------------------------------------------|
E|--------5--3--5--3--1-----1-1--3-----------------------------------------------|

Verse chords w/ rhythm

      D    F    G      C

e|----5----8----10-----8--------------------------------------------------|
B|----7----10---12-----8--------------------------------------------------|
G|----7----10---12-----7--------------------------------------------------|
D|----7--- 10---12-----9--------------------------------------------------|
A|----5----8----10-----9--------------------------------------------------|
E|----5----8----10-----8--------------------------------------------------|


Pre chorus

e|--------2------------------3----------------5--------------3------------------|
B|------3---3-------------5----5------------6---6----------5---5----------------|
G|----2-------2--------5---------5--------5--------5-----5-------5--------------|
D|--0---------------0-------------------0--------------0------------------------|
A|------------------------------------------------------------------------------|
E|------------------------------------------------------------------------------|

e|--------2------------------3----------------5------------------------------------|
B|------3---3-------------5----5------------6---6----------------------------------|
G|----2-------2--------5---------5--------5--------5-------------------------------|
D|--0---------------0-------------------0------------------------------------------|
A|-----------------------------------------------------------------2-3-4-5---------|
E|------------------------------------------------------2--3--4--5-----------------|

Chorus repeat verse chords without Cmaj

Solo

e|---------------------------------------------------------------------------|
B|-13-10----------------12-12-10----15-13--15-15-15-13-----------------------|
G|-------12p10----12----12-12-10---------------------------12p10-------------|
D|-------------12----12------------------------------------------10----------|
A|---------------------------------------------------------------------------|
E|---------------------------------------------------------------------------|


e|-10---------10----10-------------------------------------------------------|
B|----13b-13b----13----13-10-----------------------13~-----------------------|
G|---------------------------12b--12brp10--12-10---------10------------------|
D|-----------------------------------------12------------12------------------|
A|---------------------------------------------------------------------------|
E|---------------------------------------------------------------------------|



e|---------------------------------------------------------------------------|
B|----------------------------------------18~--17~--15~--15-13-15p13---------|
G|-12p10-----12--10-----10--12--10--------19~--17~--14~--14----------14-12---|
D|-------12--12--10--12-10--12--10-------------------------------------------|
A|-------------------12------------------------------------------------------|
E|---------------------------------------------------------------------------|


e|-17b20-17-16--15h16p15----15-----------------------------------------------|
B|-----------------------18----18b--10--13--15b18r---13h15p13----13/15\13----|
G|------------------------------------------------------------------------10-|
D|---------------------------------------------------------------------------|
A|---------------------------------------------------------------------------|
E|---------------------------------------------------------------------------|


e|---------------------------------------------------------------------------|
B|-------10------------20-20-20----18-18-18--17-17-17-15-15-15---------------|
G|-10-12----10---------21 21-21----19-19-19--17-17-17-14-14-14---------------|
D|-------------12------------------------------------------------------------|
A|---------------------------------------------------------------------------|
E|---------------------------------------------------------------------------|
************************************
| /   slide up
| \   slide down
| h   hammer-on
| p   pull-off
| ~   vibrato
| +   harmonic
| x   Mute note
| b   Bend
| pb  Pre-bend
| br  Bend release
| pbr Pre-bend release
| brb Bend release bend

************************************
Добавлено: 20.11.2014
Другие материалы по этой песне:
  • Аккорды и текст

Страница создана 20.11.2014
http://primanota.ru/rival-sons/open-my-eyes-chords.htm
Привет, Гость.
Предлагаем пройти революционный курс по гитаре.
Подарок от PrimaNota.Ru, забирай!