PrimaNota.ru - самый крупный в мире бесплатный архив песенных текстов, аккордов, табулатур и нот


Rival Sons - Face Of Light - таба, видео

Регистрация Запомнить меня
Войти через:  Facebook Google Twitter Vk Yandex Mail.ru

Rival Sons - Face Of Light - таба, видео

Печатать
Просмотров: 298
Уроки эстрадного вокала в Санкт-Петербурге
Song: Face Of Light
Artist: Rival Sons
Album: Pressure and Time
Tabbed By: Lucas Schulz
E-mail: leafsnationismyhome_32@hotmail.com

Not an overly complete tab, but its enough to play along and have fun with it.

Intro (pretty simple strumming pattern to figure out)

    F#    E    B    D

e|---9----7----2----5----|
B|--11----9----4----7----|
G|--11----9----4----7----|  x2
D|--11----9----4----7----|
A|---9----7----2----5----|
E|-----------------------|

Immediately after..

e|------------------------------------------------------------------------|
B|------------------------------------------------------------------------|
G|--3----3---3--3-3---3333/4-4-44--4/6-66\44\3-3----3---3--3-3---3333/4~--|
D|--4----4---4--4-4---4444/6-6-66--6/8-88\66\4-4----4---4--4-4---4444/6~--|
A|------------------------------------------------------------------------|
E|------------------------------------------------------------------------|


Verse: (works with the normal chords or the higher pitched ones from the intro but I 
personally prefer the normal)

                         F#
If I can get through the day,
                          E
I'll have a date with the moon.
                          B
That's how I spend all my worthless time on the sand,
                 Dsus2
Thinking that my ship will be coming soon.
              F#
Look at these hands,
                           E
They've been in gloves for years.
                          B
That's how I spend all my worthless rounds in the ring,
                      Dsus2
Hoping that the other guy will disappear.


But you and your face of light

e|---9-----9-----6---6----6--7---7------------------|
B|------7-----7----------------------97---10p9--7---|
G|-----------------9-----9-----8---8----7-----------|  x4
D|--------------------------------------------------|
A|--------------------------------------------------|
E|--------------------------------------------------|

It's a brilliant roman candle that separates the day from the night.
It's that clean, clear truth that sorts our the wrong from the right.


You and your face of light

e|--------------------------------|
B|--------------------------------|
G|----9--8--6h8--------15~/16~----| x2
D|----------------8---------------|
A|---------------------13~/14~----|
E|--------------------------------|

e|------------------------------------------------------------------------|
B|------------------------------------------------------------------------|
G|--3----3---3--3-3---3333/4-4-44--4/6-66\44\3-3----3---3--3-3---3333/4~--|
D|--4----4---4--4-4---4444/6-6-66--6/8-88\66\4-4----4---4--4-4---4444/6~--|
A|------------------------------------------------------------------------|
E|------------------------------------------------------------------------|


                     F#
If I can get through tonight,
                      E
I'm waking up with my wings.
                     B
There's no way I can sleep my way through a fight,
                      Dsus2
And I think I'm gonna like what tomorrow brings.
           F#
Look at my eyes,
                     E
Don't even know who I am.
                          B
That's how I spend all my worthless time on the floor,
            Dsus2
Waiting for you to tell me I'm a man.



But you and your face of light

e|---9-----9-----6---6----6--7---7------------------|
B|------7-----7----------------------97---10p9--7---|
G|-----------------9-----9-----8---8----7-----------|  x4
D|--------------------------------------------------|
A|--------------------------------------------------|
E|--------------------------------------------------|

It's a brilliant roman candle that separates the day from the night.
It's that clean, clear truth that sorts our the wrong from the right.


You and your face of light

e|--------------------------------|
B|--------------------------------|
G|----9--8--6h8--------15~/16~----| x2
D|----------------8---------------|
A|---------------------13~/14~----|
E|--------------------------------|


e|---------------------------------------------------------------|
B|---------------------------------------------------------------|
G|----9--8--6h8--------18~\16~--------9--8--6h8--------16~/18~---|
D|----------------8-------------------------------8--------------|
A|---------------------16~\14~-------------------------14~/16~---|
E|---------------------------------------------------------------|

 Dsus2                Dsus2   B              (Not too sure about this line)
Faaaaaaaaa-aaaaaaaaaa-ace of liiiiiiiiight



F# E B Dsus2 (for the rest of the song while he screams)
Добавлено: 12.09.2013
Другие материалы по этой песне:
  • Аккорды и текст

Страница создана 12.09.2013
http://primanota.ru/rival-sons/face-of-light-chords.htm
Привет, Гость.
Предлагаем пройти революционный курс по гитаре.
Подарок от PrimaNota.Ru, забирай!