PrimaNota.ru - самый крупный в мире бесплатный архив песенных текстов, аккордов, табулатур и нот


Rival Sons - Nava - таба, видео

Регистрация Запомнить меня
Войти через:  Facebook Google Twitter Vk Yandex Mail.ru

Rival Sons - Nava - таба, видео

Печатать
Просмотров: 148
Tuning is DADGAD but tuned down half a step so C#G#C#F#G#C#

Riff 1
---------0--------12---------10-------|
-10h12-------12---------12-------12---|
--------------------------------------|
-------0--------0----------0--------0-|
--------------------------------------|
-0---------0---------0---------0------|


Riff 2
-------0-------------------------------|
-5---------5--4--2---------------------|
-----------------------2---------------|
-----0--------0----4-----4-------------|
---5-----------------------------------|
-0-------0-------0---0-----------------|


-------0-------------0-----------------|
-5---------5--4--2-----2---------------|
---------------------------------------|
-----0--------0----0-----0-------------|
---5-----------------------------------|
-0-------0-------0---0-----------------|

Riff 3
-------0-------4-------0---------------|
-----------5-------5-------5-----------|
---------------------------------------|
-----5-------5-------5-------5---------|
---------------------------------------|
-3s5-----5-------5-------5-------------|

Riff 4
-------0---------------0-------0-------|
-----------0---0---0-------0-----------|
---------------------------------------|
-4h5-0-------5---4-------0-------------|
---------------------------------------|
---------0-----------0-------0---------|

Riff 5
-------0-------------0-------------4-------0-------0--------|
-9---------0---7---------0---5---------5-------5-------5----|
---0-------------0-------------0----------------------------|
-----9-------9-----7-------7-----5-------5-------5-------5--|
------------------------------------------------------------|
-9-------9-----7-------7-----5-------5-------5-------5------|

Now play riff 4 twice and go back into riff 1.

Riff 6
-------0-------0-------0-------0-------|
-4b5-------0-------0-------0-----------|
---------------------------------------|
-----0--------0-------0-------0--------|
-----------------2-------3-------------|
-0-------0-----------------------------|

Now you do the first two chords of riff 5 and then do riff 4, finally going back into 
riff 2 and finishing with:

End
-------0-------------0-----------0-----0---------0-----0--|
-5---------5--4--2-----------5-----7-----7--10-----10--0--|
-------------------------------------------------------0--|
-----0--------0----0---4-4s5---5-----7---------9-------4--|
---5---------------------------------------------------5--|
-0-------0-------0-----------------0--------0----------0--|
Добавлено: 09.11.2013
Другие материалы по этой песне:
  • Аккорды и текст

Страница создана 09.11.2013
http://primanota.ru/rival-sons/nava-chords.htm
Привет, Гость.
Предлагаем пройти революционный курс по гитаре.
Подарок от PrimaNota.Ru, забирай!