PrimaNota.ru - самый крупный в мире бесплатный архив песенных текстов, аккордов, табулатур и нот


Rival Sons - Electric Man - таба, видео

Регистрация Запомнить меня
Войти через:  Facebook Google Twitter Vk Yandex Mail.ru

Rival Sons - Electric Man - таба, видео

Печатать
Просмотров: 330
-------------------------------------------------------------------------------
                           Electric Man - Rival Sons
-------------------------------------------------------------------------------
Tabbed by: Theo
E-mail: twildgoose@gmail.com

Tuning:EADGBE

intro riff
e|---------------------------------------------------------------|
B|---------------------------------------------------------------|
G|---------------------------------------------------------------|
D|--7---5----3-----------------7---5--3---------------3----------|
A|--------------5----3----5---------------5----3--5-----5--------| 
E|----------------5--------------------------5-------------------|


pre chorus riff

e|----------------------------------------------------------|
B|----------------------------------------------------------|
G|-5/7-7-7-7--7\5-5-5-5-5/10-10-10-10-10\7-7-7-7------------|
D|----------------------------------------------------------|
A| 3/5-5-5-5--5\3-3-3-3-3/8--8--8--8--8-\5-5-5-5------------|
E|----------------------------------------------------------|


pre solo riff

e|---------------------------------------------------------------|
B|5h7-7-7-7-7p5-5-5-5-5/10-10-10-10-10\7-7-7---------------------|
G|5h7-7-7-7-7p5-5-5-5-5/10-10-10-10-10\7-7-7---------------------|
D|5h7-7-7-7-7p5-5-5-5-5/10-10-10-10-10\7-7-7---------------------|
A|---------------------------------------------------------------|
E|---------------------------------------------------------------|

Solo 2:12
                                      |listen for rhythm here|
e|---------------------------------------------------------------|
B|-------------13b---10--12-13-12----12-12-12-12-12-12-12-12-----|
G|-------10----------10--12-13-12----12-12-12-12-12-12-12-12-----|
D|-12-------12-----------------------12-12-12-12-12-12-12-12-----|
A|----12---------------------------------------------------------|
E|---------------------------------------------------------------|

               trem pick w/vibrato
                  V      
e|----------------------------------------------------------------------------|
B|-pbr13----------------------------------------------------------------------|
G|-------10b-10b-10~--------------------10-12b~-------------------------------|
D|-------------------12p10----10-12------------12-12-12-12-12-10^-------------|
A|------------------------12--------------------------------------12-10-12----|
E|-------------------------------------------------------------------------13-|

e|-----10----10--------------------------------------------------|
B|-/13----13------10~-12~-13~-12~--------------------------------|
G|----------------10~-12~-13~-12~--------------------------------|
D|---------------------------------------------------------------|
A|---------------------------------------------------------------|
E|---------------------------------------------------------------|



************************************

| /   slide up
| \   slide down
| h   hammer-on
| p   pull-off
| ~   vibrato
| +   harmonic
| x   Mute note
| b   Bend
| pb  Pre-bend
| br  Bend release
| pbr Pre-bend release
| brb Bend release bend

************************************
Добавлено: 23.10.2014
Другие материалы по этой песне:
  • Аккорды и текст

Страница создана 23.10.2014
http://primanota.ru/rival-sons/electric-man-chords.htm
Привет, Гость.
Предлагаем пройти революционный курс по гитаре.
Подарок от PrimaNota.Ru, забирай!