PrimaNota.ru - самый крупный в мире бесплатный архив песенных текстов, аккордов, табулатур и нот


Norma Jean - Bless The Martyr And Kiss The Child - таба, видео

Регистрация Запомнить меня
Войти через:  Facebook Google Twitter Vk Yandex Mail.ru

Norma Jean - Bless The Martyr And Kiss The Child - таба, видео

Печатать
Просмотров: 121
i didn't tab any of this. i just took the best tab for the song.

1.The Entire World... (Unregistered)
2.Face: Face (NewNoise)
3.Memphis Will Be Laid to Waste (Unregistered)
4.Creating Something... (teenagemisfit2)
5.Pretty Soon... (!normajean!)
6.Shotgun Message (iloveibanez)
7.Sometimes It's Our Mistakes... (chrischarboner)
8.I Used to Hate Cellphones... (Unregistered)
9.It was as If the Dead Man... (enjoizao)
10.The Human Face, Divine (chrischarboner)
11.Organized Beyond Recognition (jonathanonfire)


------------------------------------------------------------------------------
                        The Entire World...
------------------------------------------------------------------------------
this is a power tab. just go to the power tab website and download the free version and
you can play this tab

Norma Jean
"Face: Face"
Tabbed by Nic (NewNoise)

Drop C# (C#G#C#F#A#D#)

 .   - palm mute
(x8) - repeat note/chord 8 times
 x   - mute w/ fret hand
 p   - pull off
 h   - hammer on


INTRO (x2)
 Guitar I
|--------------------------------------------------|
|-19(x3)--18-19-18--19(x3)--18-19-18-19-18-19-18---|
|-22------22-22-22--22------22-22-22-22-22-22-22---|
|--------------------------------------------------|
|--------------------------------------------------|
|--------------------------------------------------|
|
|Guitar II
|--------------------------------------------------|
|--------------------------------------------------|
|-10(x3)-----10-----10(x3)-----10----10----10------|
|-9----------9------9----------9-----9-----9-------|
|-8----------8------8----------8-----8-----8-------|
|---------0-----0-----------0-----0-----0-----0----|

 Guitar I
|--------------------------------------------|
|-19(x3)--18-19-18--19(x3)--18-19-18-19-18---|
|-22------22-22-22--22------22-22-22-22-22---|
|--------------------------------------------|
|--------------------------------------------|
|--------------------------------------------|
|
|Guitar II
|---------------------------------------------|
|---------------------------------------------|
|-10(x3)-----10-----10(x3)-----10----10-------|
|-9----------9------9----------9-----9--------|
|-8----------8------8----------8-----8--------|
|---------0-----0-----------0-----0-----0-----|


RIFF 1
Both Guitars
|---------------------------------------------------------------|
|---------------------------------------------------------------|
|---------------------------------------------------------------|
|-5h6p5p0-8p0--5h6p5p0-8p0-8p0--5h6p5p0-8p0--5h6p5p0-8p0-8p0----|
|-5h6p5p0-8p0--5h6p5p0-8p0-8p0--5h6p5p0-8p0--5h6p5p0-8p0-8p0----|
|-5h6p5p0-8p0--5h6p5p0-8p0-8p0--5h6p5p0-8p0--5h6p5p0-8p0-8p0----|

|-----------------------------------------------------------------|
|-----------------------------------------------------------------|
|-----------------------------------------------------------------|
|-5h6p5p0-8p0--5h6p5p0-8p0-8p0--5h6p5p0-8p0--5h6p5p0--------------|
|-5h6p5p0-8p0--5h6p5p0-8p0-8p0--5h6p5p0-8p0--5h6p5p0-8p0-8p0-8p0--|
|-5h6p5p0-8p0--5h6p5p0-8p0-8p0--5h6p5p0-8p0--5h6p5p0--------------|

|---------------------------------------------------------------|
|---------------------------------------------------------------|
|---------------------------------------------------------------| x2
|-5h6p5p0-8p0--5h6p5p0-8p0-8p0--5h6p5p0-8p0--5h6p5p0-8p0-8p0----|
|-5h6p5p0-8p0--5h6p5p0-8p0-8p0--5h6p5p0-8p0--5h6p5p0-8p0-8p0----|
|-5h6p5p0-8p0--5h6p5p0-8p0-8p0--5h6p5p0-8p0--5h6p5p0-8p0-8p0----|


RIFF 2 (x2)
 Guitar I
|--------------------------------------------------|
|--------------------------------------------------|
|-10(x3)-----10-----10(x3)-----10----10----10------|
|-9----------9------9----------9-----9-----9-------|
|-8----------8------8----------8-----8-----8-------|
|---------0-----0-----------0-----0-----0-----0----|
|
|Guitar II
|-17(x3)--18-17-18--17(x3)--18-17-18-17-18-17-18---|
|--------------------------------------------------|
|--------------------------------------------------|
|--------------------------------------------------|
|--------------------------------------------------|
|--------------------------------------------------|

 Guitar I
|---------------------------------------------|
|---------------------------------------------|
|-10(x3)-----10-----10(x3)-----10----10-------|
|-9----------9------9----------9-----9--------|
|-8----------8------8----------8-----8--------|
|---------0-----0-----------0-----0-----0-----|
|
|Guitar II
|-17(x3)--18-17-18--17(x3)--18-17-18-17-18---|
|--------------------------------------------|
|--------------------------------------------|
|--------------------------------------------|
|--------------------------------------------|
|--------------------------------------------|


BRIDGE TO RIFF 3
 Guitar I
|--------------------------------------------------------------------|
|--------------------------------------------------9-9--8-8----------|
|--------------------------------------------------7-7--6-6----------|
|-3p2p0-----------3p2p0-----------3p2p0-----------------------0-0----|
|-------3p1p0-----------3p1p0-----------3p1p0-----------------0-0----|
|-------------3p0-------------3p0-------------3p0-------------0-0----|
|                                                             . .
|Guitar II
|--------------------------------------------------------------------|
|--------------------------------------------------9-9--8-8----------|
|--------------------------------------------------7-7--6-6----------|
|-0---------------0---------------0---------------------------0-0----|
|-0---------------0---------------0---------------------------0-0----|
|-0---------------0---------------0---------------------------0-0----|
                                                              . .

RIFF 3 PART 1 (x4)
 Guitar I
|--------------------------------------------------|
|----------------------------------9-9--8-8--------|
|----------------------------------7-7--6-6--------|
|-3p2p0-----------3p2p0-----------------------0-0--|
|-------3p1p0-----------3p1p0-----------------0-0--|
|-------------3p0-------------3p0-------------0-0--|
|                                             . .
|Guitar II
|--------------------------------------------------|
|----------------------------------9-9--14-14------|
|----------------------------------7-7--12-12------|
|-3p2p0-----------3p2p0-----------------------0-0--|
|-------3p1p0-----------3p1p0-----------------0-0--|
|-------------3p0-------------3p0-------------0-0--|
                                              . .

RIFF 3 PART 2
Both Guitars
|----------------------------------|
|----------------------------------|
|----------------------------------| x8
|-5p3p2-----------5p3p2------------|
|-------5p3p2-----------5p3p2------|
|-------------3p0-------------3p0--|

 Guitar I
|------------------|
|---9-9---8-8------|
|---7-7---6-6------|
|------------------|
|------------------|
|-0-----0----------|
|
|Guitar II
|------------------|
|---9-9---14-14----|
|---7-7---12-12----|
|------------------|
|------------------|
|-0-----0----------|


BRIDGE TO RIFF 4
Both Guitars
|----------------------------------------------|
|---4-44444----4-44444----4-44444----4---------|
|---7-77777----7-77777----7-77777----7---------|
|----------------------------------------------|
|-0----------0----------0----------0-----0-0---|
|-0----------0----------0----------0-----0-0---|
  .          .          .          .     . .


RIFF 4 (she simply will not die)
 Guitar I
|----------------------------|
|----------------------------|
|-7(x40)--12(x16)--7(x8)-----|
|-x-------x--------x---------|
|-5-------10-------5---------|
|----------------------------|
|
|Guitar II
|----------------------------|
|----------------------------|
|-7(x64)---------------------|
|-6--------------------------|
|-5--------------------------|
|----------------------------|

Both Guitars
|----------------------------------|
|---4---------------4------4-------|
|---7---------------7------7-------| x8
|----------------------------------|
|-0------0-000000-0------0---------|
|-0------0-000000-0------0---------|

|----------------------------------|
|----------------------------------|
|----------------------------------| x4
|----------------------------------|
|-0-0----0-000000-0-0----0-0-------|
|-0-0----0-000000-0-0----0-0-------|


BRIDGE TO RIFF 1 REPEAT
 Guitar I
|---------------------------------------------------------------|
|---------------------------------------------------------------|
|---------------------------------------------------------------|
|-5h6p5p0-8p0--5h6p5p0-8p0-8p0--5h6p5p0-8p0--5h6p5p0-8p0-8p0----|
|-5h6p5p0-8p0--5h6p5p0-8p0-8p0--5h6p5p0-8p0--5h6p5p0-8p0-8p0----|
|-5h6p5p0-8p0--5h6p5p0-8p0-8p0--5h6p5p0-8p0--5h6p5p0-8p0-8p0----|
|
|Guitar II
|---------------------------------------------------------------|
|---------------------------------------------------------------|
|---------------------------------------------------------------|
|----------------------8---8------------8------------8---8------|
|----------------------8---8------------8------------8---8------|
|----------------------8---8------------8------------8---8------|


REPEAT RIFF 1


RIFF 5 (x4)
 Guitar I
|-----------------------------------------|
|-19(x3)--18-19-18--19(x3)--18-19-18-19---|
|-22------22-22-22--22------22-22-22-22---|
|-----------------------------------------|
|-----------------------------------------|
|-----------------------------------------|
|
|Guitar II
|---------------------------------------------------------------|
|---------------------------------------------------------------|
|---------------------------------------------------------------|
|-5h6p5p0-8p0--5h6p5p0-8p0-8p0--5h6p5p0-8p0--5h6p5p0-8p0-8p0----|
|-5h6p5p0-8p0--5h6p5p0-8p0-8p0--5h6p5p0-8p0--5h6p5p0-8p0-8p0----|
|-5h6p5p0-8p0--5h6p5p0-8p0-8p0--5h6p5p0-8p0--5h6p5p0-8p0-8p0----|


OUTRO (repeat lots, get slower as you go)
Both Guitars
|-----------|
|-----------|
|-----------|
|--8--0-----|
|--8--0-----|
|--8--0-----|

then change to this...
|-----------|
|-----------|
|-----------|
|--8--0-0---|
|--8--0-0---|
|--8--0-0---|


END
|-----|
|-----|
|-----|
|--8--|
|--8--|
|--8--|

Band:  Norma Jean
Song:  Memphis Will Be Laid To Waste
Album: Bless the Martyr and Kiss the Child
Tuning: C# G# C# F# A# D#

Key:
. = Palm Mute
~ = Let note ring
/ = slide up


Riff 1
(Both Guitars)

|-----------------|
|-----------------|
|-----------------|
|-6-6-6-6-6-6-6-6-|
|-6-6-6-6-6-6-6-6-|
|-6-6-6-6-6-6-6-6-|


Riff 2
(Both Guitars)
(Guitar 2 waits till guitar one plays it
4 times than come in with drums and vocals)
|-----------------------|
|-------4-44444-4444444-|
|-------7-77777-7777777-|
|--000------------------|
|--000------------------|
|--000------------------|
pm ...    .....


Riff 3

|-------------------------------------------------------|
|-------------------------------------------------------|
|-------------------------------------------------------|
|-------------------------------------------------------|
|----0----0----0----0----0------0----0-------0----0---0-|
|-44---44---44---44---44---4-33---33---3-0-0---00---0---|


Riff 4

|-----------------------------|
|-7-7-7-7-7~-7-7-7-7-7~-7~----|
|-4-4-4-4-4~-4-4-4-4-4~----4~-|
|-4-4-4-4-4~-4-4-4-4-4~-------|
|---------0~---------0~-------|
|---------0~---------0~-------|

Riff 5

|------------------------------------------------------------|
|------------------------------------------------------------|
|--00000------00000-0-0-0--0-0-0—-00000------00000-----0-0-0-|
|--00000------00000-0-0-0--0-0-0—-00000------00000-----0-0-0-|
|--00000------00000-0-0-0--0-0-0--00000------00000-----0-0-0-|x2
pm .....      ..... . . .  . . .  .....      .....     . . .

Riff 6

|-------|
|-------|
|-------|
|-8~-4~-|
|-8~-4~-|
|-8~-4~-|

Back to Riff 2 just played faster this time

Riff 7

|-------------------|
|-----------4-4-4-4-|
|-----------7-7-7-7-|
|--0-0-0-0----------|
|--0-0-0-0----------|
|--0-0-0-0----------|x4
pm . . . .

Riff 8

|-----------------------|
|-----------------------|
|-----------------------|
|--0000000~--0-0~--0-0~-|
|--0000000~--0-0~--0-0~-|
|--0000000~--0-0~--0-0~-|x3
pm .......   . .   . .

Than on the 4th time play it without
holding the notes. And continue to play it

Riff 9
(Guitar 1 and 2)
|-----------------------|
|-----------------------|
|-----------------------|
|--0000000---0-0---0-0--|
|--0000000---0-0---0-0--|
|--0000000---0-0---0-0--|x12
pm .......   . .   . .


Guitar 1 plays this riff after playing the one above
8 times.
|----------------------------|
|----------------------------|
|--9~-10~--9~-----9~-10~--9~-|
|--x~--x~--x~-----x~--x~--x~-|
|--7~--8~--7~-----7~--8~--7~-|
|----------------------------|

Riff 10

|-----|
|-----|
|-----|
|--8~-|
|--8~-|
|--8~-|x4

(just guitar 1)    (both guitars)
|-------------|    |-------------|
|-------------|    |-------------|
|-------------|    |-------------|
|-------------|    |-0h2/88-8888-|
|-------------|    |-0h2-88-8888-|
|-0h2/88-8888-|x4  |-0h2/88-8888-|x4


Outro
(Guitar 1)
|--------------------|
|--------------------|
|--------------------|
|-10-10—-10-10-10-10-|
|-8—-8----8—-8—-8—-8-|
|-8—-8----8—-8—-8—-8-|

Guitar 2

|----------------------------------------------|
|----------------------------------------------|
|-10-10-101010-10—-10-10-101010/11-11-11111111-|
|--x--x--x-x-x--x—--x--x--x-x-x/-x--x--x-x-x-x-|
|--8--8--8-8-8--8—--8--8--8-8-8/-9--9--9-9-9-9-|
|----------------------------------------------|

both guitars end on

|----|
|----|
|----|
|-6~-|
|-4~-|
|-4~-|


BAND: Norma Jean
SONG: Creating Something Out Of Nothing, Only To Destroy It
ALBUM: Bless the Martyr and Kiss the Child

so ive noticed there is a general lack of norma jean tabs on this
site, so i thought id write this one....probably my favorite norma
jean tune.
so yeah here goes...


palm-mute when necessary, its not hard to figure out when

also, my strumming patterns arent exact, but kinda give you an idea of
what theyre doin
and the end gets really crazy with lots of repition that would kinda
be a waste of space to tab out, so you gotta listen.
the riffs are here, but the breakdowns in the end just need to be
pieced together a little bit


NOTE- theyre arent always two definite guitar parts, i think most of
it is unison or double tracked, you could definitely play this with
one guitar and itd sound okay...both guitars are really only
distinctively heard in parts in the break downs towards the end..but
whatev, i only split it into two parts where you really hear them.


TUNING- halfstep down and drop d...soooo (both guitars!!!)
(low to high)
Db Ab Db Gb Bb Eb
(C# G# C# F# A# F#)

anyway...


intro...
(your eyes, your concrete eyes)
no guitar...
then....


    CROSSSS CRISS-CROSS MY PATH....
Eb|---------------0------0-----0-|
Bb|--------------11-----11----11-|
Gb|--------------14-----14----14-|
Db|-0000--0-000-----00-----0-----|   repeat that a few times
Ab|-0000--0-000-----00-----0-----|
Db|-0000--0-000-----00-----0-----|


  MY WAR IS NOT WITH SOMEONE LIKE YOU....
GUITAR 1
Eb|------------|
Bb|------------|
Gb|------------|
Db|-0----------|
Ab|-0-let ring-
Db|-0----------

GUITAR 2
Eb|--------------------|
Bb|--------------------|
Gb|--------------/15---|
Db|-0------------------|
Ab|-0------------/14---|
Db|-0------------------|

   SLINGING BLOOD THAT IS NOT MY OWN....
Eb|-----------------------------------------------------------------|
Bb|-----------------------------------------------------------------|
Gb|-/10-10-10-10-10-10-10-15-15-15-15-15-15-15-15-10-10-10-10-10-10-|
Db|-----------------------------------------------------------------|
Ab|-/9--9--9--9--9--9--9--14-14-14-14-14-14-14-14-9--9--9--9--9--9--|
Db|-----------------------------------------------------------------|
repeat that a few times

GUITAR 1 keeps repeating....
Eb|-----------------------------------------------------------------|
Bb|-----------------------------------------------------------------|
Gb|-/10-10-10-10-10-10-10-15-15-15-15-15-15-15-15-10-10-10-10-10-10-|
Db|-----------------------------------------------------------------|
Ab|-/9--9--9--9--9--9--9--14-14-14-14-14-14-14-14-9--9--9--9--9--9--|
Db|-----------------------------------------------------------------|

 GUITAR 2- corresponds to guitar one's part...i put the 10 in
parenthesis because it adds more to the discord of the breakdown, but
isnt entirely necessary...im pretty sure theres other crap in there
too but its hard to pick out of all the noise, but this is basically
it. and sorry, i didnt put the rythmn and the strumming pattern, etc.
Eb|------------------------------------------------------------|
Bb|------------------------------------------------------------|
Gb|--------------------(10)------------------------------------|
Db|-4-4-4-4-4-4-4-4etc.--9-9-9-9-9-9-9-9-9etc.---4-4-4-4-4-4-4-|
Ab|-4-4-4-4-4-4-4-4------9-9-9-9-9-9-9-9-9-------4-4-4-4-4-4-4-|
Db|-4-4-4-4-4-4-4-4------9-9-9-9-9-9-9-9-9-------4-4-4-4-4-4-4-|

-quick pause-


     once again, this part is in no kind of rythmn,
   and he adds the higher Db (5) at random parts, but if you listen youll
   hear it
(1:55) "UNSEEN WAAAAR..."
Eb-------------------------|
Bb-------------------------|
Gb-----------------5-5-555-|
Db-0-0-00-0-0-000--0-0-000-|
Ab-0-0-00-0-0-000--0-0-000-|
Db-0-0-00-0-0-000--0-0-000-|

(2:14)
then guitar one does this little ditty...
Eb|------------------------------|
Bb|-----------------10-----------|
Gb|---10-11-10---10----10--------|
Db|------------------------00-00-|
Ab|-9----------9-----------00-00-|
Db|------------------------00-00-|

guitar two-                P.M
Eb|------------------------------|
Bb|------------------------------|
Gb|------------------------------|
Db|------------------------00-00-|
Ab|------------------------00-00-|
Db|------------------------00-00-|

(2:17)    "YOUR WEAPONS ARE USELESS..."
Eb|------------------------------------------------------------------|
Bb|------------------------------------------------------------------|
Gb|-7-7-7-7-7-7-7----------10---------10-------10-10-10--------------|
Db|-6-6-6-6-6-6-6--0-00-00----0-00-00----0-00-----------0-0-0-0-0----|
Ab|-5-5-5-5-5-5-5--0-00-00-8--0-00-00-8--0-00--8--8--8--0-0-0-0-0----|
Db|-0-0-0-0-0-0-0--0-00-00----0-00-00----0-00-----------0-0-0-0-0----|

   "GOLDEN GUN"
Eb|------------------------------------|
Bb|------------------------------------|
Gb|-------------------10---------10----|
Db|-0--1--3--0-0-00-0----0-0-0-0-------|  repeat both of those a few
Ab|-0--1--3--0-0-00-0-8--0-0-0-0-8-----|           times.
Db|-0--1--3--0-0-00-0----0-0-0-0-------|

guitar one
(2:57-3:09)
Eb|-----------------------------|
Bb|-----------------------------|
Gb|-7---------------------------|
Db|-6-keep strumming this chord-
Ab|-5---------------------------|
Db|-0---------------------------|

(3:10) both (P.M.)
Eb|---------|
Bb|---------|
Gb|---------|
Db|-0-000---|
Ab|-0-000---|
Db|-0-000---|

(3:11) both
       "like bringing a knife to a gun fight..."
Eb|--------------------------------------------------|
Bb|--------------------------------------------------|
Gb|--------------------------------------------------|
Db|-1-00-1-00-1-00-1-00-1-00-1-00-1-00-1-00-00-0-000-|
Ab|-1-00-1-00-1-00-1-00-1-00-1-00-1-00-1-00-00-0-000-|
Db|-1-00-1-00-1-00-1-00-1-00-1-00-1-00-1-00-00-0-000-|
   PM................................................

   "LIKE BRINGING A KNIFE TO A GUN FIGHT!!"
Eb|-------------------------------------------|
Bb|------------------15-15-15-15-15-15--------|
Gb|------------------18-18-18-18-18-18--------|
Db|-0-00-0-00-0-0-0---------------------0-0-0-|
Ab|-0-00-0-00-0-0-0---------------------0-0-0-|
Db|-0-00-0-00-0-0-0---------------------0-0-0-|
  P.M..............

Eb|----------------------------------------------|
Bb|------------------15-15-15-15-15-15-15b-------|
Gb|------------------18-18-18-18-18-18-18b-------|
Db|-0-00-0-00-0-0-0------------------------0-0-0-|
Ab|-0-00-0-00-0-0-0------------------------0-0-0-|
Db|-0-00-0-00-0-0-0------------------------0-0-0-|
  P.M..............


Norma Jean
  Pretty Soon, I Don't Know What, But Something Is Going To Happen
  Bless the Martyr and Kiss the Child
  tabbed by: !normajean!


  Ok. This is the whole song. It didnt take much to figure out cause this
 song just repeats the same riffs over and over again. I'll tell you the
 time everything starts, but you can get the timing and the patterns.


|-------------------------------------|
|-------------------------------------|
|------------9--------9---------------|this is played at the beginning
|--7--------7--------7--------7-------|
|-0--------0--------0--------0-0------|
|-------------------------------------|


|----------------------|
|----------------------|
|----------------------|this is the pattern, you can figure out the timing
|-0-----0-----3-----0--|this starts at the beginning
|-0-----0-----3-----0--|
|-0-----0-----3-----0--|

|----------------------|
|---4----4-----4-----4-|
|-6--6-6---6-6---6-6---|this fades in at about 0:52
|----------------------|
|----------------------|
|----------------------|

 this starts at 1:32
|--------------------------------------------------------------------------|
|--------------------------------------------------------------------------|
|-6-66666-6666/9-99999-9999-14-1414141414-1414141414\13-1313131313-13131313|
|-x-xxxxx-xxxx/x-xxxxx-xxxx--x--xxxxxxxxx—-xxxxxxxxx\-x--xxxxxxxxx--xxxxxxx|
|-4-44444-4444/7-77777-7777-12-1212121212-1212121212\11-1111111111-11111111|
|--------------------------------------------------------------------------|


|-----------------|
|-----------------|
|-----------------|this comes in at 2:04
|-1-0-1-0-1-0-1-0-|
|-1-0-1-0-1-0-1-0-|
|-1-0-1-0-1-0-1-0-|
    .   .   .   .

|----------------------------------------|
|----------------------------------------|
|----------------------------------------|this starts at 2:34 and ends
|-0-000-00-0-00-0-000-00-0-00-0-000-00-0-|at 3:41
|-0-000-00-0-00-0-000-00-0-00-0-000-00-0-|
|-0-000-00-0-00-0-000-00-0-00-0-000-00-0-|
        ..   ..       ..   ..       ..

|-----10------10----------10------10--|
|---14--14--14--14--14--14--14--14--14|
|-13------13------13--13------13------|this starts at 3:07
|-------------------------------------|
|-------------------------------------|
|-------------------------------------|
 then there are some pick slides

|---------------------|
|---------------------|
|---------------------|this starts at about 3:36 and ends at 4:01
|---------------------|
|-0-0-0-0-0-0-0-0-0-0-|
|-0-0-0-0-0-0-0-0-0-0-|
  . . . . . . . . . .

|-----------------------------------------------------|
|-----------------------------------------------------|
|-----------------------------------------------------|this starts at 4:01
|-0-0-0/6-6666-0-0-0/6-6666-0-0-0/6-6666-000000000000-|
|-0-0-0/6-6666-0-0-0/6-6666-0-0-0/6-6666-000000000000-|
|-0-0-0/6-6666-0-0-0/6-6666-0-0-0/6-6666-000000000000-|
                                         ............

|-----------------------------------------------------|
|-----------------------------------------------------|
|-----------------------------------------------------|this comes in at 4:10
|-1-0-0/6-6666-1-0-0/6-6666-1-0-0/6-6666-000000000000-|
|-1-0-0/6-6666-1-0-0/6-6666-1-0-0/6-6666-000000000000-|
|-1-0-0/6-6666-1-0-0/6-6666-1-0-0/6-6666-000000000000-|
                                         ............

|-----|
|-----|
|-7\6-|this also comes in at 4:10, but it is played at a certain time.
|-x\x-|You can figure it out.
|-5\4-|
|-----|


|---------------------|
|---------------------|
|---------------------|this starts at 5:01 and continues for a long time
|-0-0-0-0-0-0-0-0-0-0-|
|-0-0-0-0-0-0-0-0-0-0-|
|-0-0-0-0-0-0-0-0-0-0-|
  . . . . . . . . . .

|--------|
|--------|
|-777777-|this starts at 5:21
|-xxxxxx-|
|-555555-|(this is played randomly, you can figure out the pattern)
|--------|


|-----------------------------------------------------|
|-----------------------------------------------------|
|-----------------------------------------------------|this starts at 6:26
|-0-0-0/6-6666-0-0-0/6-6666-0-0-0/6-6666-000000000000-|
|-0-0-0/6-6666-0-0-0/6-6666-0-0-0/6-6666-000000000000-|
|-0-0-0/6-6666-0-0-0/6-6666-0-0-0/6-6666-000000000000-|
                                         ............

|-----------------------------------------------------|
|-----------------------------------------------------|
|-----------------------------------------------------|this comes in at 6:35
|-1-0-0/6-6666-1-0-0/6-6666-1-0-0/6-6666-000000000000-|
|-1-0-0/6-6666-1-0-0/6-6666-1-0-0/6-6666-000000000000-|
|-1-0-0/6-6666-1-0-0/6-6666-1-0-0/6-6666-000000000000-|
                                         ............

|-----|
|-----|
|-7\6-|this also comes in at 6:35, but it is played at a certain time.
|-x\x-|You can figure it out.
|-5\4-|
|-----|

|-------|
|-------|
|-14\13-|this starts at 6:51
|--x\-x-|
|-12\11-|
|-------|


|--------|
|--------|
|--------|they do this at 7:42 and keep doing it randomly
|-xxxxxx-|
|-xxxxxx-|
|-xxxxxx-|


|-----------------|
|-----------------|
|-----------------|this comes in at 7:58
|-1-0-1-0-1-0-1-0-|
|-1-0-1-0-1-0-1-0-|
|-1-0-1-0-1-0-1-0-|
    .   .   .   .

|---------------------------------------------|
|---------------------------------------------|
|---------------------------------------------|this starts at 8:32
|------0-------------1--------0-------------1-|
|-1/5--0---7777777p0-1---1/5--0---7777777p0-1-|
|------0-------------1--------0-------------1-|


|-------------------------------------|
|-------------------------------------|
|------------9--------9---------------|this starts at 9:20
|--7--------7--------7--------7-------|
|-0--------0--------0--------0-0------|
|-------------------------------------|

|----------------------|
|----------------------|
|----------------------|this is the pattern, you can figure out the timing
|-0-----0-----3-----0--|this starts at 9:20
|-0-----0-----3-----0--|
|-0-----0-----3-----0--|


|-------------------------------------|
|-------------------------------------|
|------------9--------9---------------|this starts at 9:44
|--7--------7--------7--------7-------|this is played clean, not distorted
|-0--------0--------0--------0-0------|
|-------------------------------------|

|---------------|
|---------------|
|---------------|this starts at 11:18,but is played lightly
|-7777--7\00-00-|
|-7777--7\00-00-|
|-7777--7\00-00-|
          .. ..

|-----------------|
|-----------------|
|-----------------|this starts at 11:52,this is played louder
|-7777-00-7\00-00-|
|-7777-00-7\00-00-|
|-7777-00-7\00-00-|
       ..   .. ..

|-----------------|
|-5555---5\-------|
|-8888---8\-------|one guitar starts this at 11:52
|------00----00-00|
|------00----00-00|
|------00----00-00|
       ..    .. ..

|--------------------------------------------|
|--------------------------------------------|this starts at 12:49
|-6666666666666666/99999999/1616161616161616-|im not too sure about this
|-xxxxxxxxxxxxxxxx/xxxxxxxx/-xxxxxxxxxxxxxxx-|part but it sounds pretty
|-4444444444444444/77777777/1414141414141414-|good
|--------------------------------------------|

|----------------------------------|
|----------------------------------|
|----------------------------------|this starts at 12:49
|-77777777777777779999999999999999-|
|-77777777777777779999999999999999-|
|-77777777777777779999999999999999-|


|----------|
|----------|
|----------|this starts at 13:32 and continues thoughout the song
|-7777770--|
|-7777770--|
|-7777770--|


|----------------------|
|---4----4-----4-----4-|
|-6--6-6---6-6---6-6---|this starts at about 13:32 and continues
|----------------------|throughout the song
|----------------------|
|----------------------|

BAND:NORMA JEAN
SONG:THE SHOTGUN MESSAGE
ALBUM:BLESS THE MARTYR AND KISS THE CHILD

I saw this somewhere there where a few mistakes but Ifixed them for you

TUNING HIGH TO LOW (A# A# F# C# G# C#) this not a typo this is really the tuning.  it is 
distorted

TABBED BY iloveibanez

A#-6-6-6----6-6-6-|
A#-5-5-5----5-5-5-|
F#----------------|
C#----------------| X4
G#----------------|
C#----------------|

A#-6--------6-------6--------6--------6--------|
A#-5--------5-------5--------5--------5--------|
F#---------------------------------------------|
C#---------------------------------------------| X1
G#-----0--------0--------0-------0--------0----|
C#-----0--------0--------0-------0--------0----|

A#-----------------------------------------|
A#-----------------------------------------|
F#-----------------------------------------|
C#-----------------------------------------|  X1
G#-0000-0-0000-0-0000-0-0000-0-0000-0--0---|
C#-0000-0-0000-0-0000-0-0000-0-0000-0--0---|

A#---12-12-12-12-12---|
A#---11-11-11-11-11---|
F#--------------------|
C#--------------------|  X1
G#--------------------|
C#--------------------|

A#--------12-12--------12-12--------12-12----------|
A#--------11-11--------11-11--------11-11----------|
F#-------------------------------------------------|
C#-------------------------------------------------| X1
G#-00000--------00000--------00000--------3-6-5-2--|
C#-00000--------00000--------00000--------3-6-5-2--|

A#--------12-12----------12-12-12-12-12-12---|
A#--------11-11----------11-11-11-11-11-11---|
F#-------------------------------------------|
C#-------------------------------------------| X1
G#-00000--------00000------------------------|
C#-00000--------00000------------------------|

A#--------12-12-----------|
A#--------11-11-----------|
F#------------------------|
C#------------------------| X1
G#-00000---------3-6-5-2--|
C#-00000---------3-6-5-2--|

A#--------12-12--------12-12--------12-12----------|
A#--------11-11--------11-11--------11-11----------|
F#-------------------------------------------------|
C#-------------------------------------------------| X2
G#-00000--------00000--------00000---------3-6-5-2-|
C#-00000--------00000--------00000---------3-6-5-2-|

A#-------------------------------------------------------------------------|
A#-------------------------------------------------------------------------|
F#-------------------------------------------------------------------------|
C#-------------------------------------------------------------------------| X1
G#-00000----00000----00000----00000----00000----00000----00000----3-6-5-2--|
C#-00000----00000----00000----00000----00000----00000----00000----3-6-5-2--|

A#-----------     ---------|
A#-----------     ---------|
F#-17171717--  x7 16161616-|    play the whole thing 3 times
C#-x-x-x-x---     -x-x-x-x-|
G#-15-15-15--     14141414-|
C#-----------     ---------|

A#------------------------------------------------------------------|
A#------------------------------------------------------------------|
F#-1717171717171717181818181818181819191919191919192020202020202020-
C#-X-X-X-X-X-X-X-X-X-X-X-X-X-X-X-X-X-X-X-X-X-X-X-X-X-X-X-X-X-X-X-X-- X1
G#-1515151515151515161616161616161617171717171717171818181818181818-
C#------------------------------------------------------------------

A#-6-6-6----6-6-6-|
A#-5-5-5----5-5-5-|
F#----------------|
C#----------------| X4
G#----------------|
C#----------------|

A#-6--------6-------6--------6--------6--------6-----6666--|
A#-5--------5-------5--------5--------5--------5-----5555--|
F#---------------------------------------------------------|
C#---------------------------------------------------------| X1
G#-----0--------0-------0--------0--------0----------------|
C#-----0--------0-------0--------0--------0----------------|

A#------------------------------------------------|
A#------------------------------------------------|
F#-----17--------17--------17--------17--------17-|
C#-----X---------X---------X---------X---------X--| X1
G#-0---15----0---15----0---15----0---15----0---15-|
C#-0---------0---------0---------0---------0------|

A#----
A#----
F#----
C#-0--  end with something like this
G#-0--
C#-0--

SOMETIMES IT'S OUR MISTAKES THAT MAKE FOR THE GREATEST IDEAS
As recorded by Norma Jean
(From the 2004 Album BLESS THE MARTYR, KISS THE CHILD)

Transcribed by James Martyn


Words by Josh Scogin Music by Norma Jean

Gtr I (Eb Ab Db Gb Bb Eb) - 'Untitled'
Gtr II (Eb Ab Db Gb Bb Eb) - 'Untitled'

 Verse
  Q=140
       N.C.
 4/4
  Gtr I
  H    E E E E    E   E   E   E   H
|--------------|------------------------|
|--------------|------------------------|
|--------------|------------------------|
|--------------|------------------------|
|------2-2-0-0-|--1---1---1---1---1-----|
|--------------|------------------------|
|
| Gtr II
| W               E   E   E   E   H
|--------------|------------------------|
|--------------|------------------------|
|--------------|-----------------<5>----|
|--------------|-<5>-<5>-<5>-<5>--------|
|--------------|------------------------|
|--------------|------------------------|


   Q       H.            +W             +H      E E E E
|---------------------|--------------|-------------------|
|---------------------|--------------|-------------------|
|---------------------|--------------|-------------------|
|---------------------|--------------|-------------------|
|--2------------------|--------------|----------2-2-0-0--|
|----------3----------|--(3)---------|--(3)--------------|
|
|  E   E   H      Q      +W             +W
|---------------------|--------------|-------------------|
|---------------------|--------------|-------------------|
|---------<5>---------|--------------|-------------------|
|-<5>-<5>--------<5>--|-(<5>)--------|-(<5>)-------------|
|---------------------|--------------|-------------------|
|---------------------|--------------|-------------------|


  N.C.
   E   E   E   E   H        Q       H.         +W             +H      E E E E
|------------------------|------------------|--------------|-------------------|
|------------------------|------------------|--------------|-------------------|
|------------------------|------------------|--------------|-------------------|
|------------------------|------------------|--------------|-------------------|
|--1---1---1---1---1-----|--2---------------|--------------|----------2-2-0-0--|
|------------------------|----------3-------|--(3)---------|--(3)--------------|
|
|  E   E   E   E   H        E   E   H.         +W             +W
|------------------------|------------------|--------------|-------------------|
|------------------------|------------------|--------------|-------------------|
|-----------------<5>----|---------<5>------|-(<5>)--------|-(<5>)-------------|
|-<5>-<5>-<5>-<5>--------|-<5>-<5>----------|--------------|-------------------|
|------------------------|------------------|--------------|-------------------|
|------------------------|------------------|--------------|-------------------|


  N.C.
   E   E   E   E   H        Q       H.
|------------------------|---------------------|
|------------------------|---------------------|
|------------------------|---------------------|
|------------------------|---------------------|
|--1---1---1---1---1-----|--2------------------|
|------------------------|----------3----------|
|
|  E   E   E   E   H        E   E   H      Q
|------------------------|---------------------|
|------------------------|---------------------|
|-----------------<5>----|---------<5>---------|
|-<5>-<5>-<5>-<5>--------|-<5>-<5>--------<5>--|
|------------------------|---------------------|
|------------------------|---------------------|


   +W                +H      E E E E
|-----------------|-------------------|
|-----------------|-------------------|
|-----------------|-------------------|
|-----------------|-------------------|
|-----------------|----------2-2-0-0--|
|--(3)------------|--(3)--------------|
|
|  +H.        Q      +W
|-----------------|-------------------|
|------------<5>--|-(<5>)-------------|
|-----------------|-------------------|
|-(<5>)-----------|-------------------|
|-----------------|-------------------|
|-----------------|-------------------|


  N.C.
   E   E   E   E   H        Q       H.
|------------------------|---------------------|
|------------------------|---------------------|
|------------------------|---------------------|
|------------------------|---------------------|
|--1---1---1---1---1-----|--2------------------|
|------------------------|----------3----------|
|
|  E   E   E   E   H        E   E   H      Q
|------------------------|---------------------|
|------------------------|---------------------|
|-----------------<5>----|---------<5>---------|
|-<5>-<5>-<5>-<5>--------|-<5>-<5>--------<5>--|
|------------------------|---------------------|
|------------------------|---------------------|


   +W             +H      E E E E
|--------------|-------------------|
|--------------|-------------------|
|--------------|-------------------|
|--------------|-------------------|
|--------------|----------2-2-0-0--|
|--(3)---------|--(3)--------------|
|
|  +W             +W
|--------------|-------------------|
|--------------|-------------------|
|--------------|-------------------|
|-(<5>)--------|-(<5>)-------------|
|--------------|-------------------|
|--------------|-------------------|


  N.C.                         Gm
  E  E E E  H          Q   H.
|------------------|-----------------|
|------------------|-----------------|
|------------------|-----------------|
|------------------|-----------------|
|-1--1-1-1--1------|---2-------------|
|------------------|-------3---------|
|
| Q.     Q.     Q     +H        H
|------------------|-----------------|
|------------------|-----------11----|
|------------------|-----------12----|
|------------------|-----------12----|
|-8------9-----10--|-(10)------10----|
|------------------|-----------------|


   +W                 +H            E  E  E  E
|-------------------|---------------------------|
|-------------------|---------------------------|
|-------------------|---------------------------|
|-------------------|---------------------------|
|-------------------|---------------2--2--0--0--|
|--(3)--------------|-(3)-----------------------|
|
|  +H      E  E  Q     E   E  E  E  E  E  E  E
|-------------------|---------------------------|
|-(11)----11-11-11--|-11--11-11-11-------11-----|
|-(12)----12-12-12--|-12--12-12----12-12----12--|
|-(12)----12-12-12--|-12--12-12-----------------|
|-(10)----10-10-10--|-10--10-10-----------------|
|-------------------|---------------------------|


  N.C.                         Gm
  E  E E E  H          Q   H.           +W                +H       E E  E E
|------------------|-----------------|------------------|--------------------|
|------------------|-----------------|------------------|--------------------|
|------------------|-----------------|------------------|--------------------|
|------------------|-----------------|------------------|--------------------|
|-1--1-1-1--1------|---2-------------|------------------|----------2-2--0-0--|
|------------------|-------3---------|--(3)-------------|-(3)----------------|
|
| Q.     Q.     Q     +H        H       +Q    Q  Q   Q     Q    Q  Q    Q
|------------------|-----------------|------------------|--------------------|
|------------------|-----------11----|-(11)--11-----11--|------11------11----|
|------------------|-----------12----|-(12)--12-----12--|------12------12----|
|------------------|-----------12----|-(12)--12-----12--|------12------12----|
|-8------9-----10--|-(10)------10----|-(10)--10-----10--|------10------10----|
|------------------|-----------------|------------------|--------------------|


  N.C.                         Gm
  E  E E E  H          Q   H.
|------------------|-----------------|
|------------------|-----------------|
|------------------|-----------------|
|------------------|-----------------|
|-1--1-1-1--1------|---2-------------|
|------------------|-------3---------|
|
| Q.     Q.     Q     +H        H
|------------------|-----------------|
|------------------|-----------11----|
|------------------|-----------12----|
|------------------|-----------12----|
|-8------9-----10--|-(10)------10----|
|------------------|-----------------|


   +W                    +H           E  E  E E
|----------------------|-------------------------|
|----------------------|-------------------------|
|----------------------|-------------------------|
|----------------------|-------------------------|
|----------------------|--------------2--2--0-0--|
|--(3)-----------------|-(3)---------------------|
|
|  +Q    E  E  E  E Q     E   E  E  E E  E  Q
|----------------------|-------------------------|
|-(11)--11-11-11-11----|-11--11-11-11---11-11----|
|-(12)--12-12-12-12----|-12--12-12-12---12-12----|
|-(12)--12-12-12-12----|-12--12-12-12---12-12----|
|-(10)--10-10-10-10----|-10--10-10-10---10-10----|
|----------------------|-------------------------|


  N.C.                         Gm
  E  E E E  H          Q   H.
|------------------|-----------------|
|------------------|-----------------|
|------------------|-----------------|
|------------------|-----------------|
|-1--1-1-1--1------|---2-------------|
|------------------|-------3---------|
|
| Q.     Q.     Q     +H        H
|------------------|-----------------|
|------------------|-----------11----|
|------------------|-----------12----|
|------------------|-----------12----|
|-8------9-----10--|-(10)------10----|
|------------------|-----------------|


   +W                    +H         E E  E E
|----------------------|----------------------|
|----------------------|----------------------|
|----------------------|----------------------|
|----------------------|----------------------|
|----------------------|------------2-2--0-0--|
|--(3)-----------------|-(3)------------------|
|
|  +Q    E  E Q   E  E    Q    E  E Q    Q
|----------------------|----------------------|
|-(11)--11-11----11-11-|------11-11-----11----|
|-(12)--12-12----12-12-|------12-12-----12----|
|-(12)--12-12----12-12-|------12-12-----12----|
|-(10)--10-10----10-10-|------10-10-----10----|
|----------------------|----------------------|


  N.C.                    Gm
  W                 W
|---------------|---------------|
|---------------|---------------|
|---------------|---------------|
|---------------|---------------|
|---------------|---------------|
|---------------|---------------|
|
| Q.   Q.    Q     +H      H
|---------------|---------------|
|---------------|---------11----|
|---------------|---------12----|
|---------------|---------12----|
|-8----9----10--|-(10)----10----|
|---------------|---------------|


    W                     H            H
|----------------------|-------------!-0----------|
|----------------------|-------------!-0----------|
|----------------------|-------------!(0)---------|
|----------------------|--------------------------|
|----------------------|--------------------------|
|----------------------|--------------------------|
|
|  +Q    E  E  E  E Q     E  E  E  E   E   E  Q
|----------------------|--------------------------|
|-(11)--11-11-11-11----|-11-11-11-11------11-11---|
|-(12)--12-12-12-12----|-12-12-12-12------12-12---|
|-(12)--12-12-12-12----|-12-12-12-12------12-12---|
|-(10)--10-10-10-10----|-10-10-10-10------10-10---|
|----------------------|--------------------------|


   Guitar Break
                                             H=H
    (Em)
    W          +H..       S S    W           +W      4x
||-----------|------------0-0-|--0---------|-(0)-----||
||o----------|------------0-0-|--0---------|-(0)----o||
||-----------|------------0-0-|--0---------|-(0)-----||
||--2--------|-(2)------------|------------|---------||
||o-2--------|-(2)------------|------------|--------o||
||--0--------|-(0)------------|------------|---------||
|
|   W          +H..       S S    W           +W      4x
||-----------|------------0-0-|--0---------|-(0)-----||
||o----------|------------0-0-|--0---------|-(0)----o||
||-----------|------------0-0-|--0---------|-(0)-----||
||-----------|----------------|-(0)--------|-(0)-----||
||o-2--------|-(2)------------|------------|--------o||
||--0--------|-(0)------------|------------|---------||


   Breakdown
    Q=160
    G5
     E  E  E  E  E  E  E  E    E  E  E  E  E  E  E  E
||--------------------------|-------------------------|
||o-------------------------|-------------------------|
||--------------------------|-------------------------|
||---5--5--5--5--5--5--5--5-|--5--5--5--5--5--5--5--5-|
||o--5--5--5--5--5--5--5--5-|--5--5--5--5--5--5--5--5-|
||---3--3--3--3--3--3--3--3-|--3--3--3--3--3--3--3--3-|
|
|    E  E  E  E  E  E  E  E    E  E  E  E  E  E  E  E
||--------------------------|-------------------------|
||o-------------------------|-------------------------|
||--10-10-10-10-10-10-10-10-|-10-10-10-10-10-10-10-10-|
||--10-10-10-10-10-10-10-10-|-10-10-10-10-10-10-10-10-|
||o--8--8--8--8--8--8--8--8-|--8--8--8--8--8--8--8--8-|
||--------------------------|-------------------------|


   E  E  E  E  E  E  E  E    E  E  E  E  E  E  E  E
|-------------------------|--------------------------||
|-------------------------|-------------------------o||
|-------------------------|--------------------------||
|--5--5--5--5--5--5--5--5-|--5--5--5--5--5--5--5--5--||
|--5--5--5--5--5--5--5--5-|--5--5--5--5--5--5--5--5-o||
|--3--3--3--3--3--3--3--3-|--3--3--3--3--3--3--3--3--||
|
|  E  E  E  E  E  E  E  E    E  E  E  E  E  E  E  E
|-------------------------|--------------------------||
|-------------------------|-------------------------o||
|-10-10-10-10-10-10-10-10-|-10-10-10-10-10-10-10-10--||
|-10-10-10-10-10-10-10-10-|-10-10-10-10-10-10-10-10--||
|--8--8--8--8--8--8--8--8-|--8--8--8--8--8--8--8--8-o||
|-------------------------|--------------------------||


    Bb5      B5       G5
     E  E  E  E  E  E  E  E    E  E  E  E  E  E  E  E
||--------------------------|-------------------------|
||o-------------------------|-------------------------|
||--------------------------|-------------------------|
||---8--8--8--9--9--9--5--5-|--5--5--5--5--5--5--5--5-|
||o--8--8--8--9--9--9--5--5-|--5--5--5--5--5--5--5--5-|
||---6--6--6--7--7--7--3--3-|--3--3--3--3--3--3--3--3-|
|
|    E  E  E  E  E  E  E  E    E  E  E  E  E  E  E  E
||--------------------------|-------------------------|
||o-------------------------|-------------------------|
||--10-10-10-10-10-10-10-10-|-10-10-10-10-10-10-10-10-|
||--10-10-10-10-10-10-10-10-|-10-10-10-10-10-10-10-10-|
||o--8--8--8--8--8--8--8--8-|--8--8--8--8--8--8--8--8-|
||--------------------------|-------------------------|


  Bb5      B5       G5
   E  E  E  E  E  E  E  E    E  E  E  E  E  E  E  E
|-------------------------|--------------------------||
|-------------------------|-------------------------o||
|-------------------------|--------------------------||
|--8--8--8--9--9--9--5--5-|--5--5--5--5--5--5--5--5--||
|--8--8--8--9--9--9--5--5-|--5--5--5--5--5--5--5--5-o||
|--6--6--6--7--7--7--3--3-|--3--3--3--3--3--3--3--3--||
|
|  E  E  E  E  E  E  E  E    E  E  E  E  E  E  E  E
|-------------------------|--------------------------||
|-------------------------|-------------------------o||
|-10-10-10-10-10-10-10-10-|-10-10-10-10-10-10-10-10--||
|-10-10-10-10-10-10-10-10-|-10-10-10-10-10-10-10-10--||
|--8--8--8--8--8--8--8--8-|--8--8--8--8--8--8--8--8-o||
|-------------------------|--------------------------||


   Chorus
    Bb5    B5     G5
    Q.     Q.     Q     +E   E  E  E  E  E  E  E
||--------------------|--------------------------|
||o-------------------|--------------------------|
||--------------------|--------------------------|
||--8------9------5---|-(5)--5--5--5--5--5--5--5-|
||o-8------9------5---|-(5)--5--5--5--5--5--5--5-|
||--6------7------3---|-(3)--3--3--3--3--3--3--3-|
|
|   E  E E E  E E E E    E   E  E  E  E  E  E  E
||--------------------|--------------------------|
||o-------------------|--------------------------|
||--------------------|-----10-10-10-10-10-10-10-|
||--8--8-8-9--9-9-5-5-|--5--10-10-10-10-10-10-10-|
||o-8--8-8-9--9-9-5-5-|--5---8--8--8--8--8--8--8-|
||--6--6-6-7--7-7-3-3-|--3-----------------------|


  Bb5    B5     G5
  Q.     Q.     Q     +E   E  E  E  E  E  E  E
|-------------------|---------------------------||
|-------------------|--------------------------o||
|-------------------|---------------------------||
|-8------9------5---|-(5)--5--5--5--5--5--5--5--||
|-8------9------5---|-(5)--5--5--5--5--5--5--5-o||
|-6------7------3---|-(3)--3--3--3--3--3--3--3--||
|
| E  E E E  E E E E    E   E  E  E  E  E  E  E
|-------------------|---------------------------||
|-------------------|--------------------------o||
|-------------------|-----10-10-10-10-10-10-10--||
|-8--8-8-9--9-9-5-5-|--5--10-10-10-10-10-10-10--||
|-8--8-8-9--9-9-5-5-|--5---8--8--8--8--8--8--8-o||
|-6--6-6-7--7-7-3-3-|--3------------------------||


    Bb5    B5     G5
    Q.     Q.     Q    +E  E E     E     E     E E E
||-------------------|-------------------------------|
||o------------------|-------------------------------|
||-------------------|-------------------------------|
||--8------9------5--|-(5)-5-5-----5-----5-----5-5-5-|
||o-8------9------5--|-(5)-5-5-----5-----5-----5-5-5-|
||--6------7------3--|-(3)-3-3-----3-----3-----3-3-3-|
|
|   E  E E E  E E Q     E  E E     E     E     E Q
||-------------------|-------------------------------|
||o------------------|-------------------------------|
||--3--3-3-4--4-4----|--3--5-5b5.5-5b5.5-5b5.5p3-----|
||--3--3-3-4--4-4-5--|---------------------------5---|
||o-1--1-1-2--2-2-5--|-------------------------------|
||----------------3--|-------------------------------|


  Bb5    B5     G5
  Q.     Q.     Q    +E  E E     E     E     E E E
|------------------|--------------------------------||
|------------------|-------------------------------o||
|------------------|--------------------------------||
|-8------9------5--|-(5)-5-5-----5-----5-----5-5-5--||
|-8------9------5--|-(5)-5-5-----5-----5-----5-5-5-o||
|-6------7------3--|-(3)-3-3-----3-----3-----3-3-3--||
|
| E  E E E  E E Q     E  E E     E     E     E Q
|------------------|--------------------------------||
|------------------|-------------------------------o||
|-3--3-3-4--4-4----|--3--5-5b5.5-5b5.5-5b5.5p3------||
|-3--3-3-4--4-4-5--|---------------------------5----||
|-1--1-1-2--2-2-5--|-------------------------------o||
|---------------3--|--------------------------------||


   Bridge
    G5
     E  E  E  E  E  E  E  E    E  E  E  E  E  E  E  E
||--------------------------|-------------------------|
||o-------------------------|-------------------------|
||--------------------------|-------------------------|
||---5--5--5--5--5--5--5--5-|--5--5--5--5--5--5--5--5-|
||o--5--5--5--5--5--5--5--5-|--5--5--5--5--5--5--5--5-|
||---3--3--3--3--3--3--3--3-|--3--3--3--3--3--3--3--3-|
|
|    E  E  E  E  E  E  E  E    E  E  E  E  E  E  E  E
||--------------------------|-------------------------|
||o-------------------------|-------------------------|
||--10-10-10-10-10-10-10-10-|-10-10-10-10-10-10-10-10-|
||--10-10-10-10-10-10-10-10-|-10-10-10-10-10-10-10-10-|
||o--8--8--8--8--8--8--8--8-|--8--8--8--8--8--8--8--8-|
||--------------------------|-------------------------|


   E  E  E  E  E  E  E  E    E  E  E  E  E  E  E  E
|-------------------------|--------------------------||
|-------------------------|-------------------------o||
|-------------------------|--------------------------||
|--5--5--5--5--5--5--5--5-|--5--5--5--5--5--5--5--5--||
|--5--5--5--5--5--5--5--5-|--5--5--5--5--5--5--5--5-o||
|--3--3--3--3--3--3--3--3-|--3--3--3--3--3--3--3--3--||
|
|  E  E  E  E  E  E  E  E    E  E  E  E  E  E  E  E
|-------------------------|--------------------------||
|-------------------------|-------------------------o||
|-10-10-10-10-10-10-10-10-|-10-10-10-10-10-10-10-10--||
|-10-10-10-10-10-10-10-10-|-10-10-10-10-10-10-10-10--||
|--8--8--8--8--8--8--8--8-|--8--8--8--8--8--8--8--8-o||
|-------------------------|--------------------------||


    F5       F#5      G5
     E  E  E  E  E  E  E  E    E  E  E  E  E  E  E  E
||--------------------------|-------------------------|
||o-------------------------|-------------------------|
||--------------------------|-------------------------|
||---5--5--5--5--5--5--5--5-|--5--5--5--5--5--5--5--5-|
||o--5--5--5--5--5--5--5--5-|--5--5--5--5--5--5--5--5-|
||---3--3--3--3--3--3--3--3-|--3--3--3--3--3--3--3--3-|
|
|    E  E  E  E  E  E  E  E    E  E  E  E  E  E  E  E
||--------------------------|-------------------------|
||o-------------------------|-------------------------|
||--10-10-10-11-11-11-12-12-|-12-12-12-12-12-12-12-12-|
||--10-10-10-11-11-11-12-12-|-12-12-12-12-12-12-12-12-|
||o--8--8--8--9--9--9-10-10-|-10-10-10-10-10-10-10-10-|
||--------------------------|-------------------------|


  F5       F#5      G5
   E  E  E  E  E  E  E  E    E  E  E  E  E  E  E  E
|-------------------------|--------------------------||
|-------------------------|-------------------------o||
|-------------------------|--------------------------||
|--5--5--5--5--5--5--5--5-|--5--5--5--5--5--5--5--5--||
|--5--5--5--5--5--5--5--5-|--5--5--5--5--5--5--5--5-o||
|--3--3--3--3--3--3--3--3-|--3--3--3--3--3--3--3--3--||
|
|  E  E  E  E  E  E  E  E    E  E  E  E  E  E  E  E
|-------------------------|--------------------------||
|-------------------------|-------------------------o||
|-10-10-10-11-11-11-12-12-|-12-12-12-12-12-12-12-12--||
|-10-10-10-11-11-11-12-12-|-12-12-12-12-12-12-12-12--||
|--8--8--8--9--9--9-10-10-|-10-10-10-10-10-10-10-10-o||
|-------------------------|--------------------------||


   Out-Chorus
    Bb5      B5       G5
     E  E  E  E  E  E  E  E    E  E  E  E  E  E  E  E
||--------------------------|-------------------------|
||o-------------------------|-------------------------|
||--------------------------|-------------------------|
||---8--8--8--9--9--9--5--5-|--5--5--5--5--5--5--5--5-|
||o--8--8--8--9--9--9--5--5-|--5--5--5--5--5--5--5--5-|
||---6--6--6--7--7--7--3--3-|--3--3--3--3--3--3--3--3-|
|
|    E  E  E  E  E  E  E  E    E  E  E  E  E  E  E  E
||--------------------------|-------------------------|
||o-------------------------|-------------------------|
||--10-10-10-10-10-10-10-10-|-10-10-10-10-10-10-10-10-|
||--10-10-10-10-10-10-10-10-|-10-10-10-10-10-10-10-10-|
||o--8--8--8--8--8--8--8--8-|--8--8--8--8--8--8--8--8-|
||--------------------------|-------------------------|


  Bb5      B5       G5
   E  E  E  E  E  E  E  E    E  E  E  E  E  E  E  E  4x
|-------------------------|--------------------------||
|-------------------------|-------------------------o||
|-------------------------|--------------------------||
|--8--8--8--9--9--9--5--5-|--5--5--5--5--5--5--5--5--||
|--8--8--8--9--9--9--5--5-|--5--5--5--5--5--5--5--5-o||
|--6--6--6--7--7--7--3--3-|--3--3--3--3--3--3--3--3--||
|
|  E  E  E  E  E  E  E  E    E  E  E  E  E  E  E  E  4x
|-------------------------|--------------------------||
|-------------------------|-------------------------o||
|-10-10-10-10-10-10-10-10-|-10-10-10-10-10-10-10-10--||
|-10-10-10-10-10-10-10-10-|-10-10-10-10-10-10-10-10--||
|--8--8--8--8--8--8--8--8-|--8--8--8--8--8--8--8--8-o||
|-------------------------|--------------------------||


  G5
                >
   W           +W            +W             W
|-----------|-------------|-------------|---------*|
|-----------|-------------|-------------|---------*|
|-----------|-------------|-------------|---------*|
|--5--------|--(5)--------|--(5)--------|---------*|
|--5--------|--(5)--------|--(5)--------|---------*|
|--3--------|--(3)--------|--(3)--------|---------*|
|
|                             >
|  W           +W            +W            +W
|-----------|-------------|-------------|---------*|
|-----------|-------------|-------------|---------*|
|-10--------|-(10)--------|-(10)--------|-(10)----*|
|-10--------|-(10)--------|-(10)--------|-(10)----*|
|--8--------|--(8)--------|--(8)--------|--(8)----*|
|-----------|-------------|-------------|---------*|

Norma Jean
I Used To Hate Cell Phones But Now I Hate Car Accidents
Bless the Martyr & Kiss the Child
Tabbed by:Deth I<3Alicia (My heart is in Pennslyvania)

Tuning: C# G# C# F# A# D#

Intro
D#|-------------------------------------------------|
A#|-------------------------------------------------|
F#|-------------------------------------------------|
C#|-00-00-00-00-00-00-00-00-44-44-44-44-44-44-44-44-|
G#|-00-00-00-00-00-00-00-00-44-44-44-44-44-44-44-44-|
C#|-00-00-00-00-00-00-00-00-44-44-44-44-44-44-44-44-|


Riff 1		x16
D#|----------|
A#|----------|
F#|--------8-|
C#|-0-6-00-8-|
G#|-0-6-00-6-|
C#|-0-6-00---|

Riff 2		x2
D#|------------------|
A#|------------------|
F#|-------8--------8-|
C#|-0-6-0-8-00-6-0-8-|
G#|-0-6-0-6-00-6-0-6-|
C#|-0-6-0---00-6-0---|

Riff 3		x8
D#|---
A#|---
F#|-7-
C#|-7-
G#|-5-
C#|---

Then slide down back into Riff 2 x3

Riff 4		x1
D#|------------------------|
A#|------------------------|
F#|-------8----------------|
C#|-0-6-0-8-0-000--000-000-|
G#|-0-6-0-6-0-000--000-000-|
C#|-0-6-0---0-000--000-000-|

Riff 5		x12
D#|----------------------|
A#|----------------------|
F#|----------------------|
C#|-0000-0-0-0-0-00-0000-|
G#|-0000-0-0-0-0-00-0000-|
C#|-0000-0-0-0-0-00-0000-|

Riff 6		x7
D#|-------|
A#|-------|
F#|-------|
C#|-5-3-0-|
G#|-5-3-0-|
C#|-5-3-0-|

Play this really fast for 8 measures
D#|-7--------------|
A#|-12-------------|
F#|----------------|
C#|----------------|
G#|----------------|
C#|----------------|

Play Riff3 x8, then another 4x with this

D#|----------------|
A#|----------------|
F#|----------------|
C#|----------------|
G#|----------------|
C#|-0--00-3-2-3-2--|

Riff 7		x4
D#|----------------|
A#|-------6-5-6-5--|
F#|-------5-4-5-4--|
C#|-0--00-3-2-3-2--|
G#|-0--00----------|
C#|-0--00----------|

Riff 8		x4
D#|------------------    -----------|
A#|------------------    -----------|
F#|----------------7-    -----------|
C#|--------------0-7- x3 -0-1-0-3---|
G#|--------------0-5-    -0-1-0-3---|
C#|-slide-down-to-0--   -0-1-0-3----|

Riff 9		x14
D#|------------------|
A#|------------------|
F#|----------------8-|
C#|--------------0-8-|
G#|--------------0-6-|
C#|-slide-down-to-0--|

 Alright, i'm too lazy to tab this part out totally, so i'll just tell you what to do:
 On the 4th, 6th and 10th time, play the last chord twice
 On the 8th time, play the last chord 3 times
On the 14th time play the last chord 6 times and kinda bend the last one

Play this every first beat for 3 measures
D#|---
A#|---
F#|---
C#|-0-
G#|-0-
C#|-0-

Riff 10		x2
D#|---7----7----      ---7----12-------|
A#|---12---12---      ---12---17-------|
F#|-------------     x3 ---------------|
C#|-00---00---00      -00---00---00----|
G#|-00---00---00      -00---00---00----|
C#|-00---00---00      -00---00---00----|

Riff 11		x1
D#|-7--7--7--7--7--7---       -7--7----6--6-----3-3-3-3-3-3--3-3--12---|
A#|-12-12-12-12-12-12--       -12-12---11-11----7-7-7-7-7-7--7-7--17---|
F#|--------------------  x2 -------------------------------------------|
C#|------------------00       -------00------00-----------00----00--00-|
G#|------------------00       -------00------00-----------00----00--00-|
C#|------------------00       -------00------00-----------00----00--00-|

Norma Jean
It Was As If The Dead Man Stood Upon The Air
Bless the Martyr & Kiss the Child

Tuning: C# G# C# F# A# D#

Tabbed By: Enjoi Zao

This is a short but good song.  Let me know if there are any errors
I'm working on the rest of the album too, and suggestions/helpful hints would be great
NOTE:  I KIND OF DID THE TIMING FOR THIS SONG, BUT IT'S NOT PERFECT, SO DON'T FOLLOW IT EXACTLY
Enjoy

Riff 1		x8
D#|---------|
A#|---------|
F#|----7----|
C#|-1--7--0-|
G#|-1--5--0-|
C#|-1-----0-|


Riff 2		Wierd effects, hard to count, something like this
D#|------------------------------|
A#|---10-----10-----10-----10----|
F#|------10-----10-----10-----10-|
C#|------------------------------|
G#|------------------------------|
C#|------------------------------|


Play Riff 1 x8


Riff 3		x1
D#|--------|
A#|--------|
F#|-7------|
C#|-7---6--|
G#|-5---6--|
C#|-----6--|


Riff 5		x1
D#|------------------------|
A#|------------------------|
F#|------------------------|
C#|-00--000--000--000--000-|
G#|-00--000--000--000--000-|
C#|-00--000--000--000--000-|

----------------------------------------------------------------------------
                         The Human Face, Divine
----------------------------------------------------------------------------
      TP
      H.      Q    +H     E E E E   E E E E E E E E  4x
||---------------|----------------|------------------||
||o--------------|----------------|-----------------o||
||--/15----------|----------------|------------------||
||----0-------0--|-(0)------------|------------------||
||o-/13-------0--|-(0)------------|-----------------o||
||------------0--|-(0)----2p0-2p0-|-2p0-3p0-2p0-1p0--||
|
|   Gtr II
|     TP
|     H.      Q    +H     E E E E   E E E E E E E E  4x
||---------------|----------------|------------------||
||o--------------|----------------|-----------------o||
||---/8----------|----------------|------------------||
||----0-------0--|-(0)------------|------------------||
||o--/6-------0--|-(0)------------|-----------------o||
||------------0--|-(0)----2p0-2p0-|-2p0-3p0-2p0-1p0--||


     TP
     H.      Q    +H     E E E E   E E E E E E E E  4x
||--------------|----------------|------------------||
||o-------------|----------------|-----------------o||
||--/8----------|----------------|------------------||
||---0-------0--|-(0)------------|------------------||
||o-/6-------0--|-(0)------------|-----------------o||
||-----------0--|-(0)----2p0-2p0-|-2p0-3p0-2p0-1p0--||
|
|    TP
|    H.      Q    +H     E E E E   E E E E E E E E  4x
||--------------|----------------|------------------||
||o-------------|----------------|-----------------o||
||--/8----------|----------------|------------------||
||---0-------0--|-(0)------------|------------------||
||o-/6-------0--|-(0)------------|-----------------o||
||-----------0--|-(0)----2p0-2p0-|-2p0-3p0-2p0-1p0--||


  E E E E E E E E   E E E E E E E E   E E E E E E E E   E E E E E E E E
|-----------------|-----------------|-----------------|-----------------||
|-----------------|-----------------|-----------------|-----------------||
|-8-8-8-8-8-8-8-8-|-8-8-8-8-8-8-8-8-|-8-8-8-8-8-8-8-8-|-8-8-8-8-8-8-8-8-||
|-0-0-0-0-0-0-0-0-|-0-0-0-0-0-0-0-0-|-0-0-0-0-0-0-0-0-|-0-0-0-0-0-0-0-0-||
|-6-6-6-6-6-6-6-6-|-6-6-6-6-6-6-6-6-|-6-6-6-6-6-6-6-6-|-6-6-6-6-6-6-6-6-||
|-----------------|-----------------|-----------------|-----------------||
|
| E E E E E E E E   E E E E E E E E   E E E E E E E E   E E E E E E E E
|-----------------|-----------------|-----------------|-----------------||
|-----------------|-----------------|-----------------|-----------------||
|-----------------|-----------------|-----------------|-----------------||
|-----------------|-----------------|-----------------|-----------------||
|-6p0-6p0-6p0-6p0-|-6p0-6p0-6p0-6p0-|-6p0-6p0-6p0-6p0-|-6p0-6p0-6p0-6p0-||
|-----------------|-----------------|-----------------|-----------------||


  E E Q    E  E  E  E    E  E  E  E  E  E  E  E
|---------------------|-------------------------|
|---------------------|-------------------------|
|-8-8------8--8--8--8-|--8--8--8--8--8--8--8--8-|
|-0-0------0--0--0--0-|--0--0--0--0--0--0--0--0-|
|-6-6------6--6--6--6-|--6--6--6--6--6--6--6--6-|
|---------------------|-------------------------|
|
| E E Q    E  E  E  E    E  E  E  E  E  E  E  E
|---------------------|-------------------------|
|---------------------|-------------------------|
|--------/15-15-15-15-|-15-15-15-15-15-15-15-15-|
|----------0--0--0--0-|--0--0--0--0--0--0--0--0-|
|-6p0----/13-13-13-13-|-13-13-13-13-13-13-13-13-|
|---------------------|-------------------------|


    TP
    H.      Q    +H     E E E E   E E E E E E E E
|--------------|----------------|-----------------||
|--------------|----------------|-----------------||
|-/15----------|----------------|-----------------||
|---0-------0--|-(0)------------|-----------------||
|-/13-------0--|-(0)------------|-----------------||
|-----------0--|-(0)----2p0-2p0-|-2p0-3p0-2p0-1p0-||
|
|   TP
|   H.      Q    +H     E E E E   E E E E E E E E
|--------------|----------------|-----------------||
|--------------|----------------|-----------------||
|--15----------|----------------|-----------------||
|---0-------0--|-(0)------------|-----------------||
|--13-------0--|-(0)------------|-----------------||
|-----------0--|-(0)----2p0-2p0-|-2p0-3p0-2p0-1p0-||


     TP
     H.      Q    +H     E E E E   E E E E E E E E  3x
||--------------|----------------|------------------||
||o-------------|----------------|-----------------o||
||--/8----------|----------------|------------------||
||---0-------0--|-(0)------------|------------------||
||o-/6-------0--|-(0)------------|-----------------o||
||-----------0--|-(0)----2p0-2p0-|-2p0-3p0-2p0-1p0--||
|
|    TP
|    H.      Q    +H     E E E E   E E E E E E E E  3x
||--------------|----------------|------------------||
||o-------------|----------------|-----------------o||
||--/8----------|----------------|------------------||
||---0-------0--|-(0)------------|------------------||
||o-/6-------0--|-(0)------------|-----------------o||
||-----------0--|-(0)----2p0-2p0-|-2p0-3p0-2p0-1p0--||


  E E E E E E E E   E E E E E E E E   E E E E E E E E   E E E E E E E E
|-----------------|-----------------|-----------------|-----------------||
|-----------------|-----------------|-----------------|-----------------||
|-8-8-8-8-8-8-8-8-|-8-8-8-8-8-8-8-8-|-8-8-8-8-8-8-8-8-|-8-8-8-8-8-8-8-8-||
|-0-0-0-0-0-0-0-0-|-0-0-0-0-0-0-0-0-|-0-0-0-0-0-0-0-0-|-0-0-0-0-0-0-0-0-||
|-6-6-6-6-6-6-6-6-|-6-6-6-6-6-6-6-6-|-6-6-6-6-6-6-6-6-|-6-6-6-6-6-6-6-6-||
|-----------------|-----------------|-----------------|-----------------||
|
| E E E E E E E E   E E E E E E E E   E E E E E E E E   E E E E E E E E
|-----------------|-----------------|-----------------|-----------------||
|-----------------|-----------------|-----------------|-----------------||
|-8-8-8-8-8-8-8-8-|-8-8-8-8-8-8-8-8-|-8-8-8-8-8-8-8-8-|-8-8-8-8-8-8-8-8-||
|-0-0-0-0-0-0-0-0-|-0-0-0-0-0-0-0-0-|-0-0-0-0-0-0-0-0-|-0-0-0-0-0-0-0-0-||
|-6-6-6-6-6-6-6-6-|-6-6-6-6-6-6-6-6-|-6-6-6-6-6-6-6-6-|-6-6-6-6-6-6-6-6-||
|-----------------|-----------------|-----------------|-----------------||


  E E Q  E E E E   E E E E E E E E     E E E E E E E E   E E E E E E E E
|----------------|-----------------||------------------|-----------------||
|----------------|-----------------||o-----------------|-----------------||
|-8-8----8-8-8-8-|-8-8-8-8-8-8-8-8-||------------------|-----------------||
|-0-0----0-0-0-0-|-0-0-0-0-0-0-0-0-||------------------|-----------------||
|-6-6----6-6-6-6-|-6-6-6-6-6-6-6-6-||o-----------------|-----------------||
|----------------|-----------------||--2p0-2p0-2p0-3p0-|-2p0-1p0-2p0-2p0-||
|
| E E Q  E E E E   E E E E E E E E     E E E E E E E E   E E E E E E E E
|----------------|-----------------||------------------|-----------------||
|----------------|-----------------||o-----------------|-----------------||
|-8-8----8-8-8-8-|-8-8-8-8-8-8-8-8-||------------------|-----------------||
|-0-0----0-0-0-0-|-0-0-0-0-0-0-0-0-||------------------|-----------------||
|-6-6----6-6-6-6-|-6-6-6-6-6-6-6-6-||o-----------------|-----------------||
|----------------|-----------------||--2p0-2p0-2p0-3p0-|-2p0-1p0-2p0-2p0-||


  E E E E E E E E     Wx24
|------------------||---------||
|-----------------o||---------||
|------------------||---------||
|------------------||---------||
|-----------------o||---------||
|-2p0-3p0-2p0-1p0--||---------||
|
| E E E E E E E E     Wx24
|------------------||---------||
|-----------------o||---------||
|------------------||---------||
|------------------||---------||
|-----------------o||---------||
|-2p0-3p0-2p0-1p0--||---------||


  CHORUS Q=140
  W           Q   H.        W           Q   H.
|----------|--------------|----------|-----------------||
|----------|--------------|----------|-----------------||
|----------|-14--15-------|----------|-14--15----------||
|-0--------|--------------|-0--------|-----------------||
|-0--------|-12--13-------|-0--------|-12--13----------||
|-0--------|--------------|-0--------|-----------------||
|
|                                                 ~~~
| W           Q   H.        W           Q   Q     H
|----------|--------------|----------|-----------------||
|----------|--------------|----------|-----------------||
|----------|--7---8-------|----------|--7---8----------||
|-0--------|--------------|-0--------|-----------------||
|-0--------|--5---6-------|-0--------|--5---6---/15----||
|-0--------|--------------|-0--------|-----------------||


  W           Q   H.        H    Q  Q    Q  Q  Q  Q
|----------|--------------|------------|-------------||
|----------|--------------|------------|-------------||
|----------|-14--15-------|------------|-------------||
|-0--------|--------------|-3----3--3--|-3--2--2--2--||
|-0--------|-12--13-------|-3----3--3--|-3--2--2--2--||
|-0--------|--------------|-3----3--3--|-3--2--2--2--||
|
| W           Q   H.        H    Q  Q    Q  Q  Q  Q
|----------|--------------|------------|-------------||
|----------|--------------|------------|-------------||
|----------|--7---8-------|------------|-------------||
|-0--------|--------------|-3----3--3--|-3--2--2--2--||
|-0--------|--5---6-------|-3----3--3--|-3--2--2--2--||
|-0--------|--------------|-3----3--3--|-3--2--2--2--||


  W          Q  Q    H       W          Q  H.
|----------|---------------|----------|---------------||
|----------|---------------|----------|---------------||
|----------|-7--8----------|----------|-7--8----------||
|-0--------|-------/15\----|-0--------|---------------||
|-0--------|-5--6--/15\----|-0--------|-5--6----------||
|-0--------|-------/15\----|-0--------|---------------||
|
|                                                ~~~
| W          Q  Q    H       W          Q  Q     H
|----------|---------------|----------|---------------||
|----------|---------------|----------|---------------||
|----------|-7--8----------|----------|-7--8----------||
|-0--------|-------/15\----|-0--------|---------------||
|-0--------|-5--6--/15\----|-0--------|-5--6---/15----||
|-0--------|-------/15\----|-0--------|---------------||


  W          Q  H.        W           Q   H.
|----------|------------|----------|------------||
|----------|------------|----------|------------||
|----------|-7--8-------|----------|-19--20-----||
|-0--------|------------|-0--------|------------||
|-0--------|-5--6-------|-0--------|-17--18-----||
|-0--------|------------|-0--------|------------||
|
| W          Q  H.        W           Q   H.
|----------|------------|----------|------------||
|----------|------------|----------|------------||
|----------|-7--8-------|----------|--7---8-----||
|-0--------|------------|-0--------|------------||
|-0--------|-5--6-------|-0--------|--5---6-----||
|-0--------|------------|-0--------|------------||


  Q=240
  PM---------------------------------------------------|
  Q  Q  Q  Q    Q  Q  Q  Q    Q  Q  Q  Q      Q  Q  Q  Q
|-------------|-------------|-------------||--------------||
|-------------|-------------|-------------||o-------------||
|-------------|-------------|-------------||--------------||
|-------------|-------------|-------------||--------------||
|-1--2--1--1--|-2--1--1--2--|-1--1--2--1--||o-1--2--1--1--||
|-3--4--3--3--|-4--3--3--4--|-3--3--4--3--||--3--4--3--3--||
|
|                     PM-------------------------------|
| W             H     Q  Q    Q  Q  Q  Q      Q  Q  Q  Q
|-------------|-------------|-------------||--------------||
|-------------|-------------|-------------||o-------------||
|-------------|-------------|-------------||--------------||
|-------------|-------------|-------------||--------------||
|-------------|-------1--2--|-1--1--2--1--||o-1--2--1--1--||
|-------------|-------3--4--|-3--3--4--3--||--3--4--3--3--||


  PM---------------------|                                PM-|
  Q  Q  Q  Q    Q  Q  Q  Q   4x E E E E E E E E   E E E E Q  Q
|-------------|--------------||-----------------|---------------||
|-------------|-------------o||-----------------|---------------||
|-------------|--------------||-----------------|---------------||
|-------------|--------------||-----------------|---------------||
|-2--1--1--2--|-1--1--2--1--o||-----------------|---------1--2--||
|-4--3--3--4--|-3--3--4--3---||-2p0-2p0-2p0-3p0-|-2p0-1p0-3--4--||
|
| PM---------------------|                                PM-|
| Q  Q  Q  Q    Q  Q  Q  Q   4x E E E E E E E E   E E E E Q  Q
|-------------|--------------||-----------------|---------------||
|-------------|-------------o||-----------------|---------------||
|-------------|--------------||-----------------|---------------||
|-------------|--------------||-----------------|---------------||
|-2--1--1--2--|-1--1--2--1--o||-----------------|---------1--2--||
|-4--3--3--4--|-3--3--4--3---||-2p0-2p0-2p0-3p0-|-2p0-1p0-3--4--||


                                          Q=260
  PM-------|
  Q  Q  Q  Q    E E E E E E E E   E E E E E E E E   E E E E E E E E
|-------------|-----------------|-----------------|-----------------||
|-------------|-----------------|-----------------|-----------------||
|-------------|-----------------|---------8-8-8-8-|-8-8-8-8-8-8-8-8-||
|-------------|-----------------|---------0-0-0-0-|-0-0-0-0-0-0-0-0-||
|-1--1--2--1--|-----------------|---------6-6-6-6-|-6-6-6-6-6-6-6-6-||
|-3--3--4--3--|-2p0-2p0-2p0-3p0-|-2p0-1p0---------|-----------------||
|
| PM-------|
| Q  Q  Q  Q    E E E E E E E E   E E E E E E E E   E E E E E E E E
|-------------|-----------------|-----------------|-----------------||
|-------------|-----------------|-----------------|-----------------||
|-------------|-----------------|---------8-8-8-8-|-8-8-8-8-8-8-8-8-||
|-------------|-----------------|---------0-0-0-0-|-0-0-0-0-0-0-0-0-||
|-1--1--2--1--|-----------------|---------6-6-6-6-|-6-6-6-6-6-6-6-6-||
|-3--3--4--3--|-2p0-2p0-2p0-3p0-|-2p0-1p0---------|-----------------||


  E E E E E E E E   E E E E E E E E   E E E E E E E E
|-----------------|-----------------|-----------------|
|-----------------|-----------------|-----------------|
|-8-8-8-8-8-8-8-8-|-8-8-8-8-8-8-8-8-|-8-8-8-8-8-8-8-8-|
|-0-0-0-0-0-0-0-0-|-0-0-0-0-0-0-0-0-|-0-0-0-0-0-0-0-0-|
|-6-6-6-6-6-6-6-6-|-6-6-6-6-6-6-6-6-|-6-6-6-6-6-6-6-6-|
|-----------------|-----------------|-----------------|
|
| E E E E E E E E   E E E E E E E E   E E E E E E E E
|-----------------|-----------------|-----------------|
|-----------------|-----------------|-----------------|
|-8-8-8-8-8-8-8-8-|-8-8-8-8-8-8-8-8-|-8-8-8-8-8-8-8-8-|
|-0-0-0-0-0-0-0-0-|-0-0-0-0-0-0-0-0-|-0-0-0-0-0-0-0-0-|
|-6-6-6-6-6-6-6-6-|-6-6-6-6-6-6-6-6-|-6-6-6-6-6-6-6-6-|
|-----------------|-----------------|-----------------|


  E E E E E E E E   E E E E   E  E  E  E
|-----------------|----------------------||
|-----------------|----------------------||
|-8-8-8-8-8-8-8-8-|-8-8-8-8---8--8--8--8-||
|-0-0-0-0-0-0-0-0-|-0-0-0-0---0--0--0--0-||
|-6-6-6-6-6-6-6-6-|-6-6-6-6---6--6--6--6-||
|-----------------|----------------------||
|
| PM      PM        PM
| Q   Q   Q   Q     Q   Q     E  E  E  E
|-----------------|----------------------||
|-----------------|----------------------||
|-----8-------8---|-----8---/15-15-15-15-||
|-----0-------0---|-----0-----0--0--0--0-||
|-0---6---0---6---|-0---6---/13-13-13-13-||
|-0-------0-------|-0--------------------||


   E  E  E  E  E  E  E  E    E  E  E  E  E  E  E  E
|-------------------------|-------------------------|
|-------------------------|-------------------------|
|--8--8--8--8--8--8--8--8-|--8--8--8--8--8--8--8--8-|
|--0--0--0--0--0--0--0--0-|--0--0--0--0--0--0--0--0-|
|--6--6--6--6--6--6--6--6-|--6--6--6--6--6--6--6--6-|
|-------------------------|-------------------------|
|
|  E  E  E  E  E  E  E  E    E  E  E  E  E  E  E  E
|-------------------------|-------------------------|
|-------------------------|-------------------------|
|-15-15-15-15-15-15-15-15-|-15-15-15-15-15-15-15-15-|
|--0--0--0--0--0--0--0--0-|--0--0--0--0--0--0--0--0-|
|-13-13-13-13-13-13-13-13-|-13-13-13-13-13-13-13-13-|
|-------------------------|-------------------------|


   E  E  E  E  E  E  E  E    E  E  E  E  E  E  E  E
|-------------------------|-------------------------||
|-------------------------|-------------------------||
|--8--8--8--8--8--8--8--8-|--8--8--8--8--8--8--8--8-||
|--0--0--0--0--0--0--0--0-|--0--0--0--0--0--0--0--0-||
|--6--6--6--6--6--6--6--6-|--6--6--6--6--6--6--6--6-||
|-------------------------|-------------------------||
|
|  E  E  E  E  E  E  E  E    E  E  E  E  E  E  E  E
|-------------------------|-------------------------||
|-------------------------|-------------------------||
|-15-15-15-15-15-15-15-15-|-15-15-15-15-15-15-15-15-||
|--0--0--0--0--0--0--0--0-|--0--0--0--0--0--0--0--0-||
|-13-13-13-13-13-13-13-13-|-13-13-13-13-13-13-13-13-||
|-------------------------|-------------------------||


   E  E  E  E  E  E  E  E    E  E  E  E E E E E
|-------------------------|---------------------|
|-------------------------|---------------------|
|--8--8--8--8--8--8--8--8-|--8--8--8--8---------|
|--0--0--0--0--0--0--0--0-|--0--0--0--0-7p0-6p0-|
|--6--6--6--6--6--6--6--6-|--6--6--6--6---------|
|-------------------------|---------------------|
|
|  E  E  E  E  E  E  E  E    E  E  E  E H
|-------------------------|---------------------|
|-------------------------|---------------------|
|-15-15-15-15-15-15-15-15-|-15-15-15-15---------|
|--0--0--0--0--0--0--0--0-|--0--0--0--0-0-------|
|-13-13-13-13-13-13-13-13-|-13-13-13-13-0-------|
|-------------------------|-------------0-------|


   E  E E E E E E E    E  E E E E E E E
|-------------------|-------------------||
|-------------------|-------------------||
|-------------------|-------------------||
|--5p=0-8p0-7p0-6p0-|--7p=0-6p0-5p0-8p0-||
|-------------------|-------------------||
|-------------------|-------------------||
|
| +W                  +W
|-------------------|-------------------||
|-------------------|-------------------||
|-------------------|-------------------||
|-(0)---------------|-(0)---------------||
|-(0)---------------|-(0)---------------||
|-(0)---------------|-(0)---------------||


   E  E E E E E E E    E  E E E E E E E    E  E E E E E E E   E E E E E E E E
|-------------------|-------------------|-------------------|-----------------||
|-------------------|-------------------|-------------------|-----------------||
|-------------------|-------------------|-------------------|---------7p0-6p0-||
|--7p=0-6p0-7p0-6p0-|--5p=0-8p0-7p0-6p0-|--7p=0-6p0-5p0-8p0-|-7p0-6p0---------||
|-------------------|-------------------|-------------------|-----------------||
|-------------------|-------------------|-------------------|-----------------||
|
| +W                  +W                  +H        H         H       H
|-------------------|-------------------|-------------------|-----------------||
|-------------------|-------------------|-------------------|-----------------||
|-------------------|-------------------|-------------------|-----------------||
|-(0)---------------|-(0)---------------|-(0)---------------|---------1-------||
|-(0)---------------|-(0)---------------|-(0)---------------|---------1-------||
|-(0)---------------|-(0)---------------|-(0)---------------|---------1-------||


   E  E E E E E E E    E  E E E E E E E
|-------------------|-------------------|
|-------------------|-------------------|
|--5p=0-8p0-7p0-6p0-|--7p=0-6p0-5p0-8p0-|
|-------------------|-------------------|
|-------------------|-------------------|
|-------------------|-------------------|
|
| +W                  +W
|-------------------|-------------------|
|-------------------|-------------------|
|-------------------|-------------------|
|-(1)---------------|-(1)---------------|
|-(1)---------------|-(1)---------------|
|-(1)---------------|-(1)---------------|


   E  E E E E E E E    E  E E E E E E E
|-------------------|-------------------||
|-------------------|-------------------||
|--7p=0-6p0-7p0-6p0-|--5p=0-8p0-7p0-6p0-||
|-------------------|-------------------||
|-------------------|-------------------||
|-------------------|-------------------||
|
| +W                  +W
|-------------------|-------------------||
|-------------------|-------------------||
|-------------------|-------------------||
|-(1)---------------|-(1)---------------||
|-(1)---------------|-(1)---------------||
|-(1)---------------|-(1)---------------||


   E  E E E E E E E    E  E E E E E E E   E E  E E E E E E   E E E E E E  E E
|-------------------|-------------------|------------------|------------------||
|-------------------|-------------------|------------------|------------------||
|--7p=0-6p0-5p0-8p0-|--7p=0-6p0---------|------------------|------------------||
|-------------------|-----------7p0-6p0-|-5p0--8p0-7p0-6p0-|-7p0-6p0-5p0--8p0-||
|-------------------|-------------------|------------------|------------------||
|-------------------|-------------------|------------------|------------------||
|
| +W                  +H        E E E E   E E  E E E E E E   E E E E E E  E E
|-------------------|-------------------|------------------|------------------||
|-------------------|-------------------|------------------|------------------||
|-------------------|-----------9p0-8p0-|-7p0-10p0-9p0-8p0-|-9p0-8p0-7p0-10p0-||
|-(1)---------------|-(1)---------------|------------------|------------------||
|-(1)---------------|-(1)---------------|------------------|------------------||
|-(1)---------------|-(1)---------------|------------------|------------------||


  E E E E E E E E   E E  E E E E E E   E E E E E E  E E   E E E E  E E E E
|-----------------|------------------|------------------|------------------||
|-----------------|------------------|------------------|---------10p0-9p0-||
|-----------------|------------------|------------------|------------------||
|-7p0-6p0-7p0-6p0-|-5p0--8p0-7p0-6p0-|-7p0-6p0-5p0--8p0-|-7p0-6p0----------||
|-----------------|------------------|------------------|------------------||
|-----------------|------------------|------------------|------------------||
|
| E E E E E E E E   E E  E E E E E E   E E E E E E  E E   E E E E  E E E E
|-----------------|------------------|------------------|------------------||
|-----------------|------------------|------------------|---------10p0-9p0-||
|-9p0-8p0-9p0-8p0-|-7p0-10p0-9p0-8p0-|-9p0-8p0-7p0-10p0-|-9p0-8p0----------||
|-----------------|------------------|------------------|------------------||
|-----------------|------------------|------------------|------------------||
|-----------------|------------------|------------------|------------------||


  E E  E E  E E E E    E E E E E E  E E
|-------------------|-------------------|
|-8p0-11p0-10p0-9p0-|-10p0-9p0-8p0-11p0-|
|-------------------|-------------------|
|-------------------|-------------------|
|-------------------|-------------------|
|-------------------|-------------------|
|
| E E  E E  E E E E    E E E E E E  E E
|-------------------|-------------------|
|-8p0-11p0-10p0-9p0-|-10p0-9p0-8p0-11p0-|
|-------------------|-------------------|
|-------------------|-------------------|
|-------------------|-------------------|
|-------------------|-------------------|


   E E E E  E E E E   E E  E E  E E E E
|-------------------|-------------------||
|-10p0-9p0-10p0-9p0-|-8p0-11p0-10p0-9p0-||
|-------------------|-------------------||
|-------------------|-------------------||
|-------------------|-------------------||
|-------------------|-------------------||
|
|  E E E E  E E E E   E E  E E  E E E E
|-------------------|-------------------||
|-10p0-9p0-10p0-9p0-|-8p0-11p0-10p0-9p0-||
|-------------------|-------------------||
|-------------------|-------------------||
|-------------------|-------------------||
|-------------------|-------------------||


                               Q=80
   E E E E E E  E E    E E E E H      +W           +H     H
|-------------------|---------------|------------|-------------||
|-10p0-9p0-8p0-11p0-|-10p0-9p0------|------------|-------------||
|-------------------|---------------|------------|-------------||
|-------------------|----------0----|-(0)--------|-(0)----1----||
|-------------------|----------0----|-(0)--------|-(0)----1----||
|-------------------|----------0----|-(0)--------|-(0)----1----||
|
|  E E E E E E  E E    E E E E H      +W           +H     H
|-------------------|---------------|------------|-------------||
|-10p0-9p0-8p0-11p0-|-10p0-9p0------|------------|-------------||
|-------------------|---------------|------------|-------------||
|-------------------|----------0----|-(0)--------|-(0)----1----||
|-------------------|----------0----|-(0)--------|-(0)----1----||
|-------------------|----------0----|-(0)--------|-(0)----1----||


                             CHORUS Q=140
  +W           +H     H      W           Q   H.
|------------|-------------|----------|------------||
|------------|-------------|----------|------------||
|------------|-------------|----------|-14--15-----||
|-(1)--------|-(1)---------|-0--------|------------||
|-(1)--------|-(1)---------|-0--------|-12--13-----||
|-(1)--------|-(1)---------|-0--------|------------||
|
| +W           +H     H      W           Q   H.
|------------|-------------|----------|------------||
|------------|-------------|----------|------------||
|------------|-------------|----------|--7---8-----||
|-(1)--------|-(1)---------|-0--------|------------||
|-(1)--------|-(1)---------|-0--------|--5---6-----||
|-(1)--------|-(1)---------|-0--------|------------||


  W           Q   H.           W           Q   H.
|----------|-----------------|----------|------------||
|----------|-----------------|----------|------------||
|----------|-14--15----------|----------|-14--15-----||
|-0--------|-----------------|-0--------|------------||
|-0--------|-12--13----------|-0--------|-12--13-----||
|-0--------|-----------------|-0--------|------------||
|
|                       ~~~
| W           Q   Q     H      W           Q   H.
|----------|-----------------|----------|------------||
|----------|-----------------|----------|------------||
|----------|--7---8----------|----------|--7---8-----||
|-0--------|-----------------|-0--------|------------||
|-0--------|--5---6---/15----|-0--------|--5---6-----||
|-0--------|-----------------|-0--------|------------||


  H    Q  Q    Q  Q  Q  Q    W          Q  Q    H
|------------|-------------|----------|---------------||
|------------|-------------|----------|---------------||
|------------|-------------|----------|-7--8----------||
|-3----3--3--|-3--2--2--2--|-0--------|-------/15\----||
|-3----3--3--|-3--2--2--2--|-0--------|-5--6--/15\----||
|-3----3--3--|-3--2--2--2--|-0--------|-------/15\----||
|
| H    Q  Q    Q  Q  Q  Q    W          Q  Q    H
|------------|-------------|----------|---------------||
|------------|-------------|----------|---------------||
|------------|-------------|----------|-7--8----------||
|-3----3--3--|-3--2--2--2--|-0--------|-------/15\----||
|-3----3--3--|-3--2--2--2--|-0--------|-5--6--/15\----||
|-3----3--3--|-3--2--2--2--|-0--------|-------/15\----||


  W          Q  H.        W          Q  H.
|----------|------------|----------|----------||
|----------|------------|----------|----------||
|----------|-7--8-------|----------|-7--8-----||
|-0--------|------------|-0--------|----------||
|-0--------|-5--6-------|-0--------|-5--6-----||
|-0--------|------------|-0--------|----------||
|
| W          Q  H.        W          Q  H.
|----------|------------|----------|----------||
|----------|------------|----------|----------||
|----------|-7--8-------|----------|-7--8-----||
|-0--------|------------|-0--------|----------||
|-0--------|-5--6-------|-0--------|-5--6-----||
|-0--------|------------|-0--------|----------||


                          Q=100
                          PM--|
  W          Q  H.        S S S H.      S
|----------|------------|-----------------|
|----------|------------|-----------------|
|----------|-7--8-------|-----------------|
|-0--------|------------|-0-0-0-----------|
|-0--------|-5--6-------|-0-0-0-----------|
|-0--------|------------|-0-0-0-----------|
|
|                         PM--|
| W          Q  H.        S S S H.      S
|----------|------------|-----------------|
|----------|------------|-----------------|
|----------|-7--8-------|-----------------|
|-0--------|------------|-0-0-0-----------|
|-0--------|-5--6-------|-0-0-0-----------|
|-0--------|------------|-0-0-0-----------|


    S S E    S  S  S S S S  S  S  S  S  S  S    4x
||----------------------------------------------||
||o--------------------------------------------o||
||----------15-15-15-7-7-7-14-14-14-14-14-14----||
||--0-0-0---------------------------------------||
||o-0-0-0---13-13-13-5-5-5-12-12-12-12-12-12---o||
||--0-0-0---------------------------------------||
|
|   Gtr III
|   S S S S  S  S  S S S S  S  S  S  S  S  S    4x
||----------------------------------------------||
||o--------------------------------------------o||
||----x---------x----x------x-------------------||
||--x---x----x-----------x--------------x-------||
||o-------x--------x---x-------x-----------x---o||
||--------------------------------xs=x----------||


    Gtr I
    S S E  S  S  S S S S  S  S  S  S  S  S  4x
||------------------------------------------||
||o----------------------------------------o||
||--------15-15-15-7-7-7-14-14-14-14-14-14--||
||--0-0-0-----------------------------------||
||o-0-0-0-13-13-13-5-5-5-12-12-12-12-12-12-o||
||--0-0-0-----------------------------------||
|
|   Gtr II
|   S S E  S  S  S S S S  S  S  S  S  S  S  4x
||------------------------------------------||
||o----------------------------------------o||
||--------15-15-15-7-7-7-14-14-14-14-14-14--||
||--0-0-0-----------------------------------||
||o-0-0-0-13-13-13-5-5-5-12-12-12-12-12-12-o||
||--0-0-0-----------------------------------||


                Q=100
  S S S S S S S S S S S S S S S S
|---------------------------------||
|---------------------------------||
|-5-5-5-5-5-5-5-5-5-5-5-5-5-5-5-5-||
|-0-0-0-0-0-0-0-0-0-0-0-0-0-0-0-0-||
|-3-3-3-3-3-3-3-3-3-3-3-3-3-3-3-3-||
|---------------------------------||
|
| S S S S S S S S S S S S S S S S
|---------------------------------||
|---------------------------------||
|-0-0-0-0-0-0-0-0-0-0-0-0-0-0-0-0-||
|-4-4-4-4-4-4-4-4-4-4-4-4-4-4-4-4-||
|-3-3-3-3-3-3-3-3-3-3-3-3-3-3-3-3-||
|---------------------------------||


    Q=90
    E E E E E E E E    E E E E E E E E  4x
||------------------|-------------------||-|
||o-0-0-0-0-0-0-0-0-|--0-0-0-0-0-0-0-0-o||-|
||--4-4-4-4-4-4-4-4-|-/7-7-7-7-5-5-5-5--||-|
||------------------|-------------------||-|
||o-----------------|------------------o||-|
||------------------|-------------------||-|
|
|   W                  W                4x
||------------------|-------------------||-|
||o-----------------|------------------o||-|
||------------------|-------------------||-|
||------------------|-------------------||-|
||o-----------------|------------------o||-|
||------------------|-------------------||-|


    E E E E E E E E     E  E  E  E E E E E  4x
||------------------|-----------------------||
||o-0-0-0-0-0-0-0-0-|---0--0--0--0-0-0-0-0-o||
||--4-4-4-4-4-4-4-4-|--/7--7--7--7-5-5-5-5--||
||------------------|-----------------------||
||o-----------------|----------------------o||
||------------------|-----------------------||
|
|   E E E E E E E E     E  E  E  E E E E E  4x
||--7-7-7-7-7-7-7-7-|-/10-10-10-10-8-8-8-8--||
||o-0-0-0-0-0-0-0-0-|---0--0--0--0-0-0-0-0-o||
||------------------|-----------------------||
||------------------|-----------------------||
||o-----------------|----------------------o||
||------------------|-----------------------||


  E E E  E E E E E     E  E  E  E E E E E
|------------------|----------------------|
|-0-0-0--0-0-0-0-0-|---0--0--0--0-0-0-0-0-|
|-4-4-4--4-4-4-4-4-|--/7--7--7--7-5-5-5-5-|
|------------------|----------------------|
|------------------|----------------------|
|------------------|----------------------|
|
| E E E  E E E E E     E  E  E  E E E E E
|-7-7-7--7-7-7-7-7-|-/10-10-10-10-8-8-8-8-|
|-0-0-0--0-0-0-0-0-|---0--0--0--0-0-0-0-0-|
|------------------|----------------------|
|------------------|----------------------|
|------------------|----------------------|
|------------------|----------------------|
|
| Gtr IV
| E E H.               W
|-8-7--------------|----------------------|
|-----7------------|----------------------|
|------------------|----------------------|
|------------------|----------------------|
|------------------|----------------------|
|------------------|----------------------|


  E E E  E E E E E    E E E E E E E E
|------------------|------------------||
|-0-0-0--0-0-0-0-0-|--0-0-0-0-0-0-0-0-||
|-4-4-4--4-4-4-4-4-|-/7-7-7-7-5-5-5-5-||
|------------------|------------------||
|------------------|------------------||
|------------------|------------------||
|
| E E E  E E E E E    E E E E E E E E
|-7-7-7--7-7-7-7-7-|--5-5-5-5-3-3-3-3-||
|-0-0-0--0-0-0-0-0-|--0-0-0-0-0-0-0-0-||
|------------------|------------------||
|------------------|------------------||
|------------------|------------------||
|------------------|------------------||
|
| E E H.              W
|-8-7--------------|------------------||
|-----7------------|------------------||
|------------------|------------------||
|------------------|------------------||
|------------------|------------------||
|------------------|------------------||


    E E E  E E E E E     E  E  E      E     E   E E E  6x
||-------------------|---------------------------------||
||o-0-0-0--0-0-0-0-0-|---0--0--0------0-----0---0-0-0-o||
||--4-4-4--4-4-4-4-4-|---4--4--4b4.5--4b4.5-4b5r4-4-4--||
||-------------------|---------------------------------||
||o------------------|--------------------------------o||
||-------------------|---------------------------------||
|
|   E E E  E E E E E     E  E  E      E     E   E E E  6x
||--7-7-7--7-7-7-7-7-|-/10-10-10-----10-----8---8-8-8--||
||o-0-0-0--0-0-0-0-0-|---0--0--0------0-----0---0-0-0-o||
||-------------------|---------------------------------||
||-------------------|---------------------------------||
||o------------------|--------------------------------o||
||-------------------|---------------------------------||
|
|   E E H.               W                             6x
||--8-7--------------|---------------------------------||
||o-----7------------|--------------------------------o||
||-------------------|---------------------------------||
||-------------------|---------------------------------||
||o------------------|--------------------------------o||
||-------------------|---------------------------------||


  W                   W
|------------------|----------------------||
|------------------|----------------------||
|------------------|----------------------||
|------------------|----------------------||
|------------------|----------------------||
|------------------|----------------------||
|
| >                   >
| E E E  E E E E E    E  E  E  E E E E E
|-7-7-7--7-7-7-7-7-|-10-10-10-10-8-8-8-8--||
|-0-0-0--0-0-0-0-0-|--0--0--0--0-0-0-0-0--||
|------------------|----------------------||
|------------------|----------------------||
|------------------|----------------------||
|------------------|----------------------||
|
| E E H.              W
|-8-7--------------|----------------------||
|-----7------------|----------------------||
|------------------|----------------------||
|------------------|----------------------||
|------------------|----------------------||
|------------------|----------------------||


  W                 W               W            W
|-----------------|--------------|------------|--------*|
|-----------------|--------------|------------|--------*|
|-----------------|--------------|------------|--------*|
|-----------------|--------------|------------|--------*|
|-----------------|--------------|------------|--------*|
|-----------------|--------------|------------|--------*|
|
| >                 >
| E E E E E E E E   E E E E H      +W           +W
|-7-7-7-7-7-7-7-7-|-5-5-5-5-3----|-(3)--------|-(3)----*|
|-0-0-0-0-0-0-0-0-|-0-0-0-0-0----|-(0)--------|-(0)----*|
|-----------------|--------------|------------|--------*|
|-----------------|--------------|------------|--------*|
|-----------------|--------------|------------|--------*|
|-----------------|--------------|------------|--------*|

ORGANIZED BEYOND RECOGNITION
                            As recorded by Norma Jean
            (From the 2002 Album BLESS THE MARTYR AND KISS THE CHILD)

Words and Music by Norma Jean
Arranged by Norma Jean
Transcribed by Jonathan Rose

Gtr I (Db Ab Db Gb Bb Eb) - 'Dist. Left'
Gtr II (Db Ab Db Gb Bb Eb) - 'Dist. Right'
Gtr III (Db Ab Db Gb Bb Eb) - 'Dist. Center'
Gtr IV (Db Ab Db Gb Bb Eb) - 'Choir'

 Intro
  Tension Rising QH=H2
    EmaE+                        EmaE+
 4/4
  Gtr I
  E q  H    +E    +W           E q  H    +E    +W
|---------------|------------|---------------|--------|
|---------------|------------|---------------|--------|
|---8--5----(5)-|-(5)--------|---8--5----(5)-|-(5)----|
|---6--6----(6)-|-(6)--------|---6--6----(6)-|-(6)----|
|---7--7----(7)-|-(7)--------|---7--7----(7)-|-(7)----|
|---------------|------------|---------------|--------|


  Q=125           H=H
    EmaE+ (Cmaj7b13/E)               EmaE+ (Cmaj7b13/E)
  E q  Q  E E E   E E E Q  E E E   E q  Q  E E E   E E E Q  E E E
|---------------|----------------|---------------|-----------------|
|---------------|-0--------0-----|---------------|-0--------0------|
|---8--5----5---|---5---5----5---|---8--5----5---|---5---5----5----|
|---6--6--6---6-|-----6--------6-|---6--6--6---6-|-----6--------6--|
|---7--7--------|----------------|---7--7--------|-----------------|
|---------------|----------------|---------------|-----------------|


  Q=129           H=H
    EmaE+ (Cmaj7b13/E)               EmaE+  (Cmaj7b13/E)
  Gtr I
  E q  Q  E E E   E E E Q  E E E   E q  Q   E E E   E E E Q   E E E
|---------------|----------------|----------------|------------------||
|---------------|-0--------0-----|----------------|-0---------0------||
|---8--5----5---|---5---5----5---|---8--5-----5---|---5---5-----5----||
|---6--6--6---6-|-----6--------6-|---6--6---6---6-|-----6---------6--||
|---7--7--------|----------------|---7--7---------|------------------||
|---------------|----------------|----------------|------------------||
|
| Gtr II
|                                         <
|                                         PM----------------------|
| W               W                H      E E E E   E E E E E E E E
|---------------|----------------|----------------|------------------||
|---------------|----------------|----------------|------------------||
|---------------|----------------|--------8-8-8-8-|-8-8-8-8-8-8-8-8--||
|---------------|----------------|----------------|------------------||
|---------------|----------------|----------------|------------------||
|---------------|----------------|----------------|------------------||


 "White tie, black jacket.."
  Getting Faster Q=1H=H
    EmajE+  (Cmaj7b13/E)                EmajE+  (Cmaj7b13/E)
  E q   Q   E E E   E E E Q   E E E   E q   Q   E E E   E E E Q   E E E
|-----------------|-----------------|-----------------|------------------|
|-----------------|-0---------0-----|-----------------|-0---------0------|
|---8---5-----5---|---5---5-----5---|---8---5-----5---|---5---5-----5----|
|---6---6---6---6-|-----6---------6-|---6---6---6---6-|-----6---------6--|
|---7---7---------|-----------------|---7---7---------|------------------|
|-----------------|-----------------|-----------------|------------------|
|
| PM------------------------------------------------------------------|
| E E E E E E E E   E E E E E E E E   E E E E E E E E   E E E E E E E E
|-----------------|-----------------|-----------------|------------------|
|-----------------|-----------------|-----------------|------------------|
|-5-8-8-5-5-5-5-5-|-5-5-5-5-5-5-5-5-|-5-8-8-5-5-5-5-5-|-5-5-5-5-5-5-5-5--|
|-----------------|-----------------|-----------------|------------------|
|-----------------|-----------------|-----------------|------------------|
|-----------------|-----------------|-----------------|------------------|


  Q=134             H=H
    EmajE+  (Cmaj7b13/E)                EmajE+  (Cmaj7b13/E)
  E q   Q   E E E   E E E Q   E E E   E q   Q   E E E   E E E Q   E E E
|-----------------|-----------------|-----------------|------------------|
|-----------------|-0---------0-----|-----------------|-0---------0------|
|---8---5-----5---|---5---5-----5---|---8---5-----5---|---5---5-----5----|
|---6---6---6---6-|-----6---------6-|---6---6---6---6-|-----6---------6--|
|---7---7---------|-----------------|---7---7---------|------------------|
|-----------------|-----------------|-----------------|------------------|
|
| PM------------------------------------------------------------------|
| E E E E E E E E   E E E E E E E E   E E E E E E E E   E E E E E E E E
|-----------------|-----------------|-----------------|------------------|
|-----------------|-----------------|-----------------|------------------|
|-5-8-8-5-5-5-5-5-|-5-5-5-5-5-5-5-5-|-5-8-8-5-5-5-5-5-|-5-5-5-5-5-5-5-5--|
|-----------------|-----------------|-----------------|------------------|
|-----------------|-----------------|-----------------|------------------|
|-----------------|-----------------|-----------------|------------------|


  Q=136             H=H
    EmajE+  (Cmaj7b13/E)                EmajE+  (Cmaj7b13/E)
  E q   Q   E E E   E E E Q   E E E   E q   Q   E E E   E E E Q   E E E
|-----------------|-----------------|-----------------|------------------|
|-----------------|-0---------0-----|-----------------|-0---------0------|
|---8---5-----5---|---5---5-----5---|---8---5-----5---|---5---5-----5----|
|---6---6---6---6-|-----6---------6-|---6---6---6---6-|-----6---------6--|
|---7---7---------|-----------------|---7---7---------|------------------|
|-----------------|-----------------|-----------------|------------------|
|
| PM------------------------------------------------------------------|
| E E E E E E E E   E E E E E E E E   E E E E E E E E   E E E E E E E E
|-----------------|-----------------|-----------------|------------------|
|-----------------|-----------------|-----------------|------------------|
|-5-8-8-5-5-5-5-5-|-5-5-5-5-5-5-5-5-|-5-8-8-5-5-5-5-5-|-5-5-5-5-5-5-5-5--|
|-----------------|-----------------|-----------------|------------------|
|-----------------|-----------------|-----------------|------------------|
|-----------------|-----------------|-----------------|------------------|


  Q=138             H=H
    EmajE+  (Cmaj7b13/E)                EmajE+  (Cmaj7b13/E)
  E q   Q   E E E   E E E Q   E E E   E q   Q   E E E   E E E Q   E E E
|-----------------|-----------------|-----------------|------------------|
|-----------------|-0---------0-----|-----------------|-0---------0------|
|---8---5-----5---|---5---5-----5---|---8---5-----5---|---5---5-----5----|
|---6---6---6---6-|-----6---------6-|---6---6---6---6-|-----6---------6--|
|---7---7---------|-----------------|---7---7---------|------------------|
|-----------------|-----------------|-----------------|------------------|
|
| PM------------------------------------------------------------------|
| E E E E E E E E   E E E E E E E E   E E E E E E E E   E E E E E E E E
|-----------------|-----------------|-----------------|------------------|
|-----------------|-----------------|-----------------|------------------|
|-5-8-8-5-5-5-5-5-|-5-5-5-5-5-5-5-5-|-5-8-8-5-5-5-5-5-|-5-5-5-5-5-5-5-5--|
|-----------------|-----------------|-----------------|------------------|
|-----------------|-----------------|-----------------|------------------|
|-----------------|-----------------|-----------------|------------------|


  Q=140             H=H
    EmajE+  (Cmaj7b13/E)                EmajE+  (Cmaj7b13/E)
  E q   Q   E E E   E E E Q   E E E   E q   Q   E E E   E E E Q   E E E
|-----------------|-----------------|-----------------|------------------|
|-----------------|-0---------0-----|-----------------|-0---------0------|
|---8---5-----5---|---5---5-----5---|---8---5-----5---|---5---5-----5----|
|---6---6---6---6-|-----6---------6-|---6---6---6---6-|-----6---------6--|
|---7---7---------|-----------------|---7---7---------|------------------|
|-----------------|-----------------|-----------------|------------------|
|
| PM------------------------------------------------------------------|
| E E E E E E E E   E E E E E E E E   E E E E E E E E   E E E E E E E E
|-----------------|-----------------|-----------------|------------------|
|-----------------|-----------------|-----------------|------------------|
|-5-8-8-5-5-5-5-5-|-5-5-5-5-5-5-5-5-|-5-8-8-5-5-5-5-5-|-5-5-5-5-5-5-5-5--|
|-----------------|-----------------|-----------------|------------------|
|-----------------|-----------------|-----------------|------------------|
|-----------------|-----------------|-----------------|------------------|


  Q=142             H=H
    EmajE+  (Cmaj7b13/E)
  E q   Q   E E E   E E E Q   E E E
|-----------------|-----------------|
|-----------------|-0---------0-----|
|---8---5-----5---|---5---5-----5---|
|---6---6---6---6-|-----6---------6-|
|---7---7---------|-----------------|
|-----------------|-----------------|
|
| PM---------------------------------
| E E E E E E E E   E E E E E E E E
|-----------------|-----------------|
|-----------------|-----------------|
|-5-8-8-5-5-5-5-5-|-5-5-5-5-5-5-5-5-|
|-----------------|-----------------|
|-----------------|-----------------|
|-----------------|-----------------|


    EmajE+  (Cmaj7b13/E)
                                     2/4
                    <
  E q   Q   E E E   E E E Q   E E E   E E E E
|-----------------|-----------------|----------||
|-----------------|-0---------0-----|---0------||
|---8---5-----5---|---5---5-----5---|-5---5----||
|---6---6---6---6-|-----6---------6-|-------6--||
|---7---7---------|-----------------|----------||
|-----------------|-----------------|----------||
|
|                   <
|---------------|                     PM--|
| E E E E E E E E   E E E E E E E E   E E E E
|-----------------|-----------------|----------||
|-----------------|-----------------|----------||
|-5-8-8-5-5-5-5-5-|-5-5-5-5-5-5-5-5-|-5-8-8-8--||
|-----------------|-----------------|-x-x-x-x--||
|-----------------|-----------------|-3-6-6-6--||
|-----------------|-----------------|----------||


   "Let's just face the fact.."
    Even Faster Q=155
    Bbsus2
   2/2
     E  E  E  E  E  E  E  E    E  E  E  E  E  E Q
||--------------------------|----------------------|
||o-------------------------|----------------------|
||--------------------------|----------------------|
||---8--8--8--8--8--8--8--8-|--8--8--8--8--8--8----|
||o--8--8--8--8--8--8--8--8-|--8--8--8--8--8--8----|
||---8--8--8--8--8--8--8--8-|--8--8--8--8--8--8----|
|
|    E  E  E  E  E  E  E  E    E  E  E  E  E  E Q
||--------------------------|----------------------|
||o-------------------------|----------------------|
||--------------------------|----------------------|
||--10-10-10-10-10-10-10-10-|-10-10-10-10-10-10----|
||o--8--8--8--8--8--8--8--8-|--8--8--8--8--8--8----|
||---8--8--8--8--8--8--8--8-|--8--8--8--8--8--8----|


  A5
  E E E E E E E E   E E E E E E Q    4x
|-----------------|------------------||
|-----------------|-----------------o||
|-----------------|------------------||
|-7-7-7-7-7-7-7-7-|-7-7-7-7-7-7------||
|-7-7-7-7-7-7-7-7-|-7-7-7-7-7-7-----o||
|-7-7-7-7-7-7-7-7-|-7-7-7-7-7-7------||
|
| E E E E E E E E   E E E E E E Q    4x
|-----------------|------------------||
|-----------------|-----------------o||
|-----------------|------------------||
|-7-7-7-7-7-7-7-7-|-7-7-7-7-7-7------||
|-7-7-7-7-7-7-7-7-|-7-7-7-7-7-7-----o||
|-7-7-7-7-7-7-7-7-|-7-7-7-7-7-7------||


 Interlude
  A5
 3/4
  PM-----------------------------------------------------------|
  E  E E E E E    E  E E E E E    E  E E E E E    E  E E E  E  E
|--------------|---------------|---------------|-----------------|
|--------------|---------------|---------------|-----------------|
|--------------|--7--9-9-------|---------------|--7--9-9---------|
|-5--7-7-------|---------------|--5--7-7-------|-----------------|
|--------5-7-7-|---------5-7-7-|---------5-7-7-|---------5--7--7-|
|--------------|---------------|---------------|-----------------|
|
| H.             +H.             +H.             +H        +E  E
|--------------|---------------|---------------|-----------------|
|--------------|---------------|---------------|-----------------|
|--------------|---------------|---------------|-----------------|
|-7------------|-(7)-----------|-(7)-----------|-(7)-------(7)---|
|-7------------|-(7)-----------|-(7)-----------|-(7)-------(7)-7-|
|-7------------|-(7)-----------|-(7)-----------|-(7)-------(7)-7-|


  A5
  E E E E E E    E  E E E E E    E  E E E E E    E  E E E E E
|-------------|---------------|---------------|---------------|
|-------------|---------------|---------------|---------------|
|-------------|--7h=9-x-------|---------------|--7h=9-x-------|
|-5h7-x-------|---------------|--5h=7-x-------|---------------|
|-------5h7-x-|---------5h7-x-|---------5h7-x-|---------5h7-x-|
|-------------|---------------|---------------|---------------|
|
| H.            +H.             +H.             +H.
|-------------|---------------|---------------|---------------|
|-------------|---------------|---------------|---------------|
|-------------|---------------|---------------|---------------|
|-7-----------|-(7)-----------|-(7)-----------|-(7)-----------|
|-7-----------|-(7)-----------|-(7)-----------|-(7)-----------|
|-7-----------|-(7)-----------|-(7)-----------|-(7)-----------|


  Gaining Speed Q=165       H=H
  N.C.
  Gtr I
   E   E   E   E   E   E     E   E   E   E   E   E
|-------------------------|-------------------------|
|-------------------------|-------------------------|
|-------------------------|--7h==9---x--------------|
|--5h==7---x--------------|-------------------------|
|--------------5h==7---x--|--------------5h==7---x--|
|-------------------------|-------------------------|
|
| Gtr II
|  PM------------------------------------------------
|  E   E   E   E   E   E     E   E   E   E   E   E
|-------------------------|-------------------------|
|-------------------------|-------------------------|
|-------------------------|-------------------------|
|-------------------------|-------------------------|
|-<5>-<5>-<5>-<5>-<5>-<5>-|-<5>-<5>-<5>-<5>-<5>-<5>-|
|-------------------------|-------------------------|
|
| Gtr III
|  E   E   E   E   E   E     E   E   E   E   E   E
|--x---x---x---x---x---x--|--x---x---x---x---x---x--|
|--x---x---x---x---x---x--|--x---x---x---x---x---x--|
|--x---x---x---x---x---x--|--x---x---x---x---x---x--|
|--x---x---x---x---x---x--|--x---x---x---x---x---x--|
|--x---x---x---x---x---x--|--x---x---x---x---x---x--|
|--x---x---x---x---x---x--|--x---x---x---x---x---x--|


   E   E   E   E   E   E     E   E   E   E   E   E
|-------------------------|-------------------------|
|-------------------------|-------------------------|
|-------------------------|--7h==9---x--------------|
|--5h==7---x--------------|-------------------------|
|--------------5h==7---x--|--------------5h==7---x--|
|-------------------------|-------------------------|
|
|-----------------------------------------------|
|  E   E   E   E   E   E     E   E   E   E   E   E
|-------------------------|-------------------------|
|-------------------------|-------------------------|
|-------------------------|-------------------------|
|-------------------------|-------------------------|
|-<5>-<5>-<5>-<5>-<5>-<5>-|-<5>-<5>-<5>-<5>-<5>-<5>-|
|-------------------------|-------------------------|
|
|  E   E   E   E   E   E     E   E   E   E   E   E
|--x---x---x---x---x---x--|--x---x---x---x---x---x--|
|--x---x---x---x---x---x--|--x---x---x---x---x---x--|
|--x---x---x---x---x---x--|--x---x---x---x---x---x--|
|--x---x---x---x---x---x--|--x---x---x---x---x---x--|
|--x---x---x---x---x---x--|--x---x---x---x---x---x--|
|--x---x---x---x---x---x--|--x---x---x---x---x---x--|


  Q=166                     H=H
  N.C.
   E   E   E   E   E   E     E   E   E   E   E   E
|-------------------------|-------------------------|
|-------------------------|-------------------------|
|-------------------------|--7h==9---x--------------|
|--5h==7---x--------------|-------------------------|
|--------------5h==7---x--|--------------5h==7---x--|
|-------------------------|-------------------------|
|
|  E   E   E   E   E   E     E   E   E   E   E   E
|-------------------------|-------------------------|
|-------------------------|-------------------------|
|-------------------------|-------------<5>-<5>-<5>-|
|-------------------------|---------<5>-<5>-<5>-<5>-|
|-<5>-<5>-<5>-<5>-<5>-<5>-|-<5>-<5>-----------------|
|-------------------------|-------------------------|
|
|  E   E   E   E   E   E     E   E   E   E   E   E
|--x---x---x---x---x---x--|--x---x---x---x---x---x--|
|--x---x---x---x---x---x--|--x---x---x---x---x---x--|
|--x---x---x---x---x---x--|--x---x---x---x---x---x--|
|--x---x---x---x---x---x--|--x---x---x---x---x---x--|
|--x---x---x---x---x---x--|--x---x---x---x---x---x--|
|--x---x---x---x---x---x--|--x---x---x---x---x---x--|


   E   E   E   E   E   E     E   E   E   E   E   E
|-------------------------|-------------------------|
|-------------------------|-------------------------|
|-------------------------|--7h==9---x--------------|
|--5h==7---x--------------|-------------------------|
|--------------5h==7---x--|--------------5h==7---x--|
|-------------------------|-------------------------|
|
|  E   E   E   E   E   E     E   E   E   E   E   E
|-------------------------|-------------------------|
|-------------------------|-------------------------|
|-<5>-----<5>-<5>---------|-------------------------|
|-<5>-<5>-<5>-<5>---------|-------------------------|
|-----------------<5>-<5>-|-<5>-<5>-<5>-<5>-<5>-<5>-|
|-------------------------|-------------------------|
|
|  E   E   E   E   E   E     E   E   E   E   E   E
|--x---x---x---x---x---x--|--x---x---x---x---x---x--|
|--x---x---x---x---x---x--|--x---x---x---x---x---x--|
|--x---x---x---x---x---x--|--x---x---x---x---x---x--|
|--x---x---x---x---x---x--|--x---x---x---x---x---x--|
|--x---x---x---x---x---x--|--x---x---x---x---x---x--|
|--x---x---x---x---x---x--|--x---x---x---x---x---x--|


  Q=167                     H=H
  N.C.
   E   E   E   E   E   E     E   E   E   E   E   E
|-------------------------|-------------------------|
|-------------------------|-------------------------|
|-------------------------|--7h==9---x--------------|
|--5h==7---x--------------|-------------------------|
|--------------5h==7---x--|--------------5h==7---x--|
|-------------------------|-------------------------|
|
|  PM------------------------------------------------
|  E   E   E   E   E   E     E   E   E   E   E   E
|-------------------------|-------------------------|
|-------------------------|-------------------------|
|-------------------------|-------------------------|
|-------------------------|-------------------------|
|-<5>-<5>-<5>-<5>-<5>-<5>-|-<5>-<5>-<5>-<5>-<5>-<5>-|
|-------------------------|-------------------------|
|
|  E   E   E   E   E   E     E   E   E   E   E   E
|--x---x---x---x---x---x--|--x---x---x---x---x---x--|
|--x---x---x---x---x---x--|--x---x---x---x---x---x--|
|--x---x---x---x---x---x--|--x---x---x---x---x---x--|
|--x---x---x---x---x---x--|--x---x---x---x---x---x--|
|--x---x---x---x---x---x--|--x---x---x---x---x---x--|
|--x---x---x---x---x---x--|--x---x---x---x---x---x--|


   E   E   E   E   E   E     E   E   E   E   E   E
|-------------------------|-------------------------|
|-------------------------|-------------------------|
|-------------------------|--7h==9---x--------------|
|--5h==7---x--------------|-------------------------|
|--------------5h==7---x--|--------------5h==7---x--|
|-------------------------|-------------------------|
|
|-----------------------------------------------|
|  E   E   E   E   E   E     E   E   E   E   E   E
|-------------------------|-------------------------|
|-------------------------|-------------------------|
|-<5>-----<5>-----<5>-----|-<5>-----<5>-----<5>-----|
|-<5>-<5>-<5>-<5>-<5>-<5>-|-<5>-<5>-<5>-<5>-<5>-<5>-|
|-----<5>-----<5>-----<5>-|-----<5>-----<5>-----<5>-|
|-------------------------|-------------------------|
|
|  E   E   E   E   E   E     E   E   E   E   E   E
|--x---x---x---x---x---x--|--x---x---x---x---x---x--|
|--x---x---x---x---x---x--|--x---x---x---x---x---x--|
|--x---x---x---x---x---x--|--x---x---x---x---x---x--|
|--x---x---x---x---x---x--|--x---x---x---x---x---x--|
|--x---x---x---x---x---x--|--x---x---x---x---x---x--|
|--x---x---x---x---x---x--|--x---x---x---x---x---x--|


  Q=168                     H=H
  N.C.
   E   E   E   E   E   E     E   E   E   E   E   E
|-------------------------|-------------------------|
|-------------------------|-------------------------|
|-------------------------|--7h==9---x--------------|
|--5h==7---x--------------|-------------------------|
|--------------5h==7---x--|--------------5h==7---x--|
|-------------------------|-------------------------|
|
|  PM------------------------------------------------
|  E   E   E   E   E   E     E   E   E   E   E   E
|-------------------------|-------------------------|
|-------------------------|-------------------------|
|-<5>-<5>-<5>-<5>-<5>-<5>-|-------------------------|
|-<5>-<5>-<5>-<5>-<5>-<5>-|-<5>-<5>-<5>-<5>-<5>-<5>-|
|-------------------------|-<5>-<5>-<5>-<5>-<5>-<5>-|
|-------------------------|-------------------------|
|
|  E   E   E   E   E   E     E   E   E   E   E   E
|--x---x---x---x---x---x--|--x---x---x---x---x---x--|
|--x---x---x---x---x---x--|--x---x---x---x---x---x--|
|--x---x---x---x---x---x--|--x---x---x---x---x---x--|
|--x---x---x---x---x---x--|--x---x---x---x---x---x--|
|--x---x---x---x---x---x--|--x---x---x---x---x---x--|
|--x---x---x---x---x---x--|--x---x---x---x---x---x--|


   E   E   E   E   E   E     E   E   E   E   E   E
|-------------------------|-------------------------|
|-------------------------|-------------------------|
|-------------------------|--7h==9---x--------------|
|--5h==7---x--------------|-------------------------|
|--------------5h==7---x--|--------------5h==7---x--|
|-------------------------|-------------------------|
|
|-----------------------------------------------|
|  E   E   E   E   E   E     E   E   E   E   E   E
|-------------------------|-------------------------|
|-------------------------|-------------------------|
|-<5>-<5>-----------------|-------------------------|
|-<5>-<5>-<5>-<5>---------|-------------------------|
|-----------------<5>-<5>-|-<5>-<5>-<5>-<5>-<5>-<5>-|
|-------------------------|-------------------------|
|
|  E   E   E   E   E   E     E   E   E   E   E   E
|--x---x---x---x---x---x--|--x---x---x---x---x---x--|
|--x---x---x---x---x---x--|--x---x---x---x---x---x--|
|--x---x---x---x---x---x--|--x---x---x---x---x---x--|
|--x---x---x---x---x---x--|--x---x---x---x---x---x--|
|--x---x---x---x---x---x--|--x---x---x---x---x---x--|
|--x---x---x---x---x---x--|--x---x---x---x---x---x--|


    Q=169                     H=H
    N.C.
     E   E   E   E   E   E     E   E   E   E   E   E
||--------------------------|-------------------------|
||o-------------------------|-------------------------|
||--------------------------|--7h==9---x--------------|
||---5h==7---x--------------|-------------------------|
||o--------------5h==7---x--|--------------5h==7---x--|
||--------------------------|-------------------------|
|
|    PM------------------------------------------------
|    E   E   E   E   E   E     E   E   E   E   E   E
||--------------------------|-------------------------|
||o-------------------------|-------------------------|
||--<5>-----<5>-----<5>-----|-<5>-----<5>-----<5>-----|
||--<5>-<5>-<5>-<5>-<5>-<5>-|-<5>-<5>-<5>-<5>-<5>-<5>-|
||o-----<5>-----<5>-----<5>-|-----<5>-----<5>-----<5>-|
||--------------------------|-------------------------|
|
|    E   E   E   E   E   E     E   E   E   E   E   E
||---x---x---x---x---x---x--|--x---x---x---x---x---x--|
||o--x---x---x---x---x---x--|--x---x---x---x---x---x--|
||---x---x---x---x---x---x--|--x---x---x---x---x---x--|
||---x---x---x---x---x---x--|--x---x---x---x---x---x--|
||o--x---x---x---x---x---x--|--x---x---x---x---x---x--|
||---x---x---x---x---x---x--|--x---x---x---x---x---x--|


   E   E   E   E   E   E     E   E   E   E   E   E
|-------------------------|---------------------------||
|-------------------------|--------------------------o||
|-------------------------|--7h==9---x----------------||
|--5h==7---x--------------|---------------------------||
|--------------5h==7---x--|--------------5h==7---x---o||
|-------------------------|---------------------------||
|
|-----------------------------------------------|
|  E   E   E   E   E   E     E   E   E   E   E   E
|-------------------------|---------------------------||
|-------------------------|--------------------------o||
|-<5>-----<5>-----<5>-----|-<5>-----<5>-----<5>-------||
|-<5>-<5>-<5>-<5>-<5>-<5>-|-<5>-<5>-<5>-<5>-<5>-<5>---||
|-----<5>-----<5>-----<5>-|-----<5>-----<5>-----<5>--o||
|-------------------------|---------------------------||
|
|  E   E   E   E   E   E     E   E   E   E   E   E
|--x---x---x---x---x---x--|--x---x---x---x---x---x----||
|--x---x---x---x---x---x--|--x---x---x---x---x---x---o||
|--x---x---x---x---x---x--|--x---x---x---x---x---x----||
|--x---x---x---x---x---x--|--x---x---x---x---x---x----||
|--x---x---x---x---x---x--|--x---x---x---x---x---x---o||
|--x---x---x---x---x---x--|--x---x---x---x---x---x----||


   Interlude continued
    Gaining Speed Q=170   H=H
    Bbsus2
    Gtr I
     E   E   E  E  E  E    E   E   E  E  E  E
||----------------------|---------------------|
||o---------------------|---------------------|
||----------------------|--7h==9---x----------|
||---5h==7---x----------|---------------------|
||o-------------5h=7--x-|-------------5h=7--x-|
||----------------------|---------------------|
|
|   Gtr II
|    E  +E   E  E  E  E    E  +E   E  E  E  E
||----------------------|---------------------|
||o---------------------|---------------------|
||----------------------|---------------------|
||--10-(10)-10-10-10-10-|-10-(10)-10-10-10-10-|
||o--8--(8)--8--8--8--8-|--8--(8)--8--8--8--8-|
||---8--(8)--8--8--8--8-|--8--(8)--8--8--8--8-|


   E   E   E  E  E  E    E   E   E  E  E  E
|---------------------|----------------------|
|---------------------|----------------------|
|---------------------|--7h==9---x-----------|
|--5h==7---x----------|----------------------|
|-------------5h=7--x-|-------------5h=7--x--|
|---------------------|----------------------|
|
|  E  +E   E  E  E  E    E  +E   E  E  E  E
|---------------------|----------------------|
|---------------------|----------------------|
|---------------------|----------------------|
|-10-(10)-10-10-10-10-|-10-(10)-10-10-10-10--|
|--8--(8)--8--8--8--8-|--8--(8)--8--8--8--8--|
|--8--(8)--8--8--8--8-|--8--(8)--8--8--8--8--|


  A5
  E  E  E E E E   E  E  E E E E   E  E  E E E E   E  E  E E E E  6x
|---------------|---------------|---------------|----------------||
|---------------|---------------|---------------|---------------o||
|---------------|-7h=9--x-------|---------------|-7h=9--x--------||
|-5h=7--x-------|---------------|-5h=7--x-------|----------------||
|---------5h7-x-|---------5h7-x-|---------5h7-x-|---------5h7-x-o||
|---------------|---------------|---------------|----------------||
|
| E +E  E E E E   E +E  E E E E   E +E  E E E E   E +E  E E E E  6x
|---------------|---------------|---------------|----------------||
|---------------|---------------|---------------|---------------o||
|---------------|---------------|---------------|----------------||
|-7-(7)-7-7-7-7-|-7-(7)-7-7-7-7-|-7-(7)-7-7-7-7-|-7-(7)-7-7-7-7--||
|-7-(7)-7-7-7-7-|-7-(7)-7-7-7-7-|-7-(7)-7-7-7-7-|-7-(7)-7-7-7-7-o||
|-7-(7)-7-7-7-7-|-7-(7)-7-7-7-7-|-7-(7)-7-7-7-7-|-7-(7)-7-7-7-7--||


  Q=172               H=H
  Bbsus2
   E  E  E  E  E  E    E  E  E  E  E  E
|-------------------|-------------------|
|-------------------|-------------------|
|-------------------|-------------------|
|--5h=7--x----------|--5h=7--x----------|
|-----------5h=7--x-|-----------5h=7--x-|
|-------------------|-------------------|
|
|  E  E  E  E  E  E    E  E  E  E  E  E
|-------------------|-------------------|
|-------------------|-------------------|
|-------------------|-------------------|
|-10-10-10-10-10-10-|-10-10-10-10-10-10-|
|--8--8--8--8--8--8-|--8--8--8--8--8--8-|
|--8--8--8--8--8--8-|--8--8--8--8--8--8-|


   E  E  E  E  E  E    E  E  E  E  E  E
|-------------------|-------------------|
|-------------------|-------------------|
|-------------------|-------------------|
|--5h=7--x----------|--5h=7--x----------|
|-----------5h=7--x-|-----------5h=7--x-|
|-------------------|-------------------|
|
|  E  E  E  E  E  E    E  E  E  E  E  E
|-------------------|-------------------|
|-------------------|-------------------|
|-------------------|-------------------|
|-10-10-10-10-10-10-|-10-10-10-10-10-10-|
|--8--8--8--8--8--8-|--8--8--8--8--8--8-|
|--8--8--8--8--8--8-|--8--8--8--8--8--8-|


  Q=174         H=H
  A5
  E E E E E E   E E E E E E   E E E E E E   E E E E E E
|-------------|-------------|-------------|-------------|
|-------------|-------------|-------------|-------------|
|-------------|-------------|-------------|-------------|
|-5h7-x-------|-5h7-x-------|-5h7-x-------|-5h7-x-------|
|-------5h7-x-|-------5h7-x-|-------5h7-x-|-------5h7-x-|
|-------------|-------------|-------------|-------------|
|
| E E E E E E   E E E E E E   E E E E E E   E E E E E E
|-------------|-------------|-------------|-------------|
|-------------|-------------|-------------|-------------|
|-------------|-------------|-------------|-------------|
|-7-7-7-7-7-7-|-7-7-7-7-7-7-|-7-7-7-7-7-7-|-7-7-7-7-7-7-|
|-7-7-7-7-7-7-|-7-7-7-7-7-7-|-7-7-7-7-7-7-|-7-7-7-7-7-7-|
|-7-7-7-7-7-7-|-7-7-7-7-7-7-|-7-7-7-7-7-7-|-7-7-7-7-7-7-|


    Q=175               H=H
    Bbsus2
     E  E  E  E  E  E    E  E  E  E  E  E
||--------------------|-------------------|
||o-------------------|-------------------|
||--------------------|-------------------|
||---5h=7--x----------|--5h=7--x----------|
||o-----------5h=7--x-|-----------5h=7--x-|
||--------------------|-------------------|
|
|    E  E  E  E  E  E    E  E  E  E  E  E
||--------------------|-------------------|
||o-------------------|-------------------|
||--------------------|-------------------|
||--10-10-10-10-10-10-|-10-10-10-10-10-10-|
||o--8--8--8--8--8--8-|--8--8--8--8--8--8-|
||---8--8--8--8--8--8-|--8--8--8--8--8--8-|


   E  E  E  E  E  E    E  E  E  E  E  E
|-------------------|--------------------|
|-------------------|--------------------|
|-------------------|--------------------|
|--5h=7--x----------|--5h=7--x-----------|
|-----------5h=7--x-|-----------5h=7--x--|
|-------------------|--------------------|
|
|  E  E  E  E  E  E    E  E  E  E  E  E
|-------------------|--------------------|
|-------------------|--------------------|
|-------------------|--------------------|
|-10-10-10-10-10-10-|-10-10-10-10-10-10--|
|--8--8--8--8--8--8-|--8--8--8--8--8--8--|
|--8--8--8--8--8--8-|--8--8--8--8--8--8--|


  A5
  E E E E E E   E E E E E E   E E E E E E   E E E E E E
|-------------|-------------|-------------|--------------||
|-------------|-------------|-------------|-------------o||
|-------------|-------------|-------------|-7h9-x--------||
|-5h7-x-------|-5h7-x-------|-5h7-x-------|--------------||
|-------5h7-x-|-------5h7-x-|-------5h7-x-|-------5h7-x-o||
|-------------|-------------|-------------|--------------||
|
| E E E E E E   E E E E E E   E E E E E E   E E E E E E
|-------------|-------------|-------------|--------------||
|-------------|-------------|-------------|-------------o||
|-------------|-------------|-------------|--------------||
|-7-7-7-7-7-7-|-7-7-7-7-7-7-|-7-7-7-7-7-7-|-7-7-7-7-7-7--||
|-7-7-7-7-7-7-|-7-7-7-7-7-7-|-7-7-7-7-7-7-|-7-7-7-7-7-7-o||
|-7-7-7-7-7-7-|-7-7-7-7-7-7-|-7-7-7-7-7-7-|-7-7-7-7-7-7--||


    Q=177
    Bbsus2
     E  E  E  E  E  E    E  E  E  E  E  E
||--------------------|-------------------|
||o-------------------|-------------------|
||--------------------|-------------------|
||---5h=7--x----------|--5h=7--x----------|
||o-----------5h=7--x-|-----------5h=7--x-|
||--------------------|-------------------|
|
|    E  E  E  E  E  E    E  E  E  E  E  E
||--------------------|-------------------|
||o-------------------|-------------------|
||--------------------|-------------------|
||--10-10-10-10-10-10-|-10-10-10-10-10-10-|
||o--8--8--8--8--8--8-|--8--8--8--8--8--8-|
||---8--8--8--8--8--8-|--8--8--8--8--8--8-|


   E  E  E  E  E  E    E  E  E  E  E  E
|-------------------|--------------------|
|-------------------|--------------------|
|-------------------|--------------------|
|--5h=7--x----------|--5h=7--x-----------|
|-----------5h=7--x-|-----------5h=7--x--|
|-------------------|--------------------|
|
|  E  E  E  E  E  E    E  E  E  E  E  E
|-------------------|--------------------|
|-------------------|--------------------|
|-------------------|--------------------|
|-10-10-10-10-10-10-|-10-10-10-10-10-10--|
|--8--8--8--8--8--8-|--8--8--8--8--8--8--|
|--8--8--8--8--8--8-|--8--8--8--8--8--8--|


  A5
  E E E E E E   E E E E E E   E E E E E E   E E E E E E  4x
|-------------|-------------|-------------|--------------||
|-------------|-------------|-------------|-------------o||
|-------------|-------------|-------------|--------------||
|-5h7-x-------|-5h7-x-------|-5h7-x-------|-5h7-x--------||
|-------5h7-x-|-------5h7-x-|-------5h7-x-|-------5h7-x-o||
|-------------|-------------|-------------|--------------||
|
| E E E E E E   E E E E E E   E E E E E E   E E E E E E  4x
|-------------|-------------|-------------|--------------||
|-------------|-------------|-------------|-------------o||
|-------------|-------------|-------------|--------------||
|-7-7-7-7-7-7-|-7-7-7-7-7-7-|-7-7-7-7-7-7-|-7-7-7-7-7-7--||
|-7-7-7-7-7-7-|-7-7-7-7-7-7-|-7-7-7-7-7-7-|-7-7-7-7-7-7-o||
|-7-7-7-7-7-7-|-7-7-7-7-7-7-|-7-7-7-7-7-7-|-7-7-7-7-7-7--||


   Bridge
    Slower Q=170
    A5
    E E E E E E    E  E E E E E    E  E E E E E    E  E E E E E   3x
||--------------|---------------|---------------|-----------------||
||o-------------|---------------|---------------|----------------o||
||--------------|--7h=9-x-------|---------------|--7h=9-x---------||
||--5h7-x-------|---------------|--5h=7-x-------|-----------------||
||o-------5h7-x-|---------5h7-x-|---------5h7-x-|---------5h7-x--o||
||--------------|---------------|---------------|-----------------||
|
|   H.            +H.             +H.             +H.             3x
||--------------|---------------|---------------|-----------------||
||o-------------|---------------|---------------|----------------o||
||--------------|---------------|---------------|-----------------||
||--7-----------|-(7)-----------|-(7)-----------|-(7)-------------||
||o-7-----------|-(7)-----------|-(7)-----------|-(7)------------o||
||--7-----------|-(7)-----------|-(7)-----------|-(7)-------------||


   "Let's just face the fact.."
    Slower Q=155
    Bbsus2
   2/2
     E  E  E  E  E  E  E  E    E  E  E  E  E  E Q
||--------------------------|----------------------|
||o-------------------------|----------------------|
||--------------------------|----------------------|
||---8--8--8--8--8--8--8--8-|--8--8--8--8--8--8----|
||o--8--8--8--8--8--8--8--8-|--8--8--8--8--8--8----|
||---8--8--8--8--8--8--8--8-|--8--8--8--8--8--8----|
|
|    E  E  E  E  E  E  E  E    E  E  E  E  E  E Q
||--------------------------|----------------------|
||o-------------------------|----------------------|
||--------------------------|----------------------|
||--10-10-10-10-10-10-10-10-|-10-10-10-10-10-10----|
||o--8--8--8--8--8--8--8--8-|--8--8--8--8--8--8----|
||---8--8--8--8--8--8--8--8-|--8--8--8--8--8--8----|


  A5
  E E E E E E E E   E E E E E E Q
|-----------------|------------------||
|-----------------|-----------------o||
|-----------------|------------------||
|-7-7-7-7-7-7-7-7-|-7-7-7-7-7-7------||
|-7-7-7-7-7-7-7-7-|-7-7-7-7-7-7-----o||
|-7-7-7-7-7-7-7-7-|-7-7-7-7-7-7------||
|
| E E E E E E E E   E E E E E E Q
|-----------------|------------------||
|-----------------|-----------------o||
|-----------------|------------------||
|-7-7-7-7-7-7-7-7-|-7-7-7-7-7-7------||
|-7-7-7-7-7-7-7-7-|-7-7-7-7-7-7-----o||
|-7-7-7-7-7-7-7-7-|-7-7-7-7-7-7------||


  No more tempo changes! Q=165
  N.C.
 4/4
  E E E E E E E E   E E E E E E E E   E E E E E E E E   E E E E E E E E
|-----------------|-----------------|-----------------|-----------------||
|---0---0---0---0-|---0---0---0---0-|---0---0---0---0-|---0---0-0-------||
|-5---5---5---5---|-5---5---5---5---|-5---5---5---5---|-5---5-----5-5-5-||
|-----------------|-----------------|-----------------|-----------------||
|-----------------|-----------------|-----------------|-----------------||
|-----------------|-----------------|-----------------|-----------------||
|
| W                 W                 W                 H       E E E E
|-----------------|-----------------|-----------------|---------x-x-x-x-||
|-----------------|-----------------|-----------------|---------x-x-x-x-||
|-----------------|-----------------|-----------------|---------x-x-x-x-||
|-----------------|-----------------|-----------------|---------x-x-x-x-||
|-----------------|-----------------|-----------------|---------x-x-x-x-||
|-----------------|-----------------|-----------------|---------x-x-x-x-||


   "White tie, black jacket.."
    N.C.
    Gtrs I, II
    E E E E E E E E   E E E E E E E E   E E E E E E E E   E E E E E E E E   6x
||------------------|-----------------|-----------------|-------------------||
||o---0---0---0---0-|---0---0-0-------|---0---0---0---0-|---0---0-0--------o||
||------5---5---5---|-5---5-----5-5-5-|-----5---5---5---|-5---5-----5-5-5---||
||------------------|-----------------|-----------------|-------------------||
||o-----------------|-----------------|-----------------|------------------o||
||------------------|-----------------|-----------------|-------------------||


   "I ain't seen you in a while."
    N.C.
    Gtr I
    E E E E E E E E    E  E E E E E E E   E E E E E E E E    E  E E E E E E E
||------------------|-------------------|-----------------|--------------------|
||o---0---0---0---0-|-----0---0-0-------|---0---0---0---0-|-----0---0-0--------|
||------5---5---5---|--5----5-----5-5-5-|-----5---5---5---|--5----5-----5-5-5--|
||------------------|-------------------|-----------------|--------------------|
||o-----------------|-------------------|-----------------|--------------------|
||------------------|-------------------|-----------------|--------------------|
|
|   Gtr II
|   E E E E E E E E    E  E E E E E E E   E E E E E E E E    E  E E E E E E E
||------------------|-------------------|-----------------|--------------------|
||o-----------------|-------------------|-----------------|--------------------|
||------------------|-------------------|-----------------|--------------------|
||--7-7-7-7-7-7-7-7-|--7--7-7-7-7-7-7-7-|-0-0-0-0-0-0-0-0-|--0--0-0-0-0-0-0-0--|
||o-x-x-x-x-x-x-x-x-|--x--x-x-x-x-x-x-x-|-x-x-x-x-x-x-x-x-|--x--x-x-x-x-x-x-x--|
||--7-7-7-7-7-7-7-7-|--7--7-7-7-7-7-7-7-|-0-0-0-0-0-0-0-0-|--0--0-0-0-0-0-0-0--|
|
|   Gtr IV
|   W                 +W                  W                 +W
||------------------|-------------------|-----------------|--------------------|
||o-5---------------|-(5)---------------|-----------------|--------------------|
||------------------|-------------------|-7---------------|-(7)----------------|
||------------------|-------------------|-----------------|--------------------|
||o-----------------|-------------------|-----------------|--------------------|
||------------------|-------------------|-----------------|--------------------|


  N.C.
   E  E  E  E  E  E  E  E    E   E  E  E  E  E  E  E
|-------------------------|--------------------------|
|-----0-----0-----0-----0-|------0-----0--0----------|
|--------5-----5-----5----|--5------5--------5--5--5-|
|-------------------------|--------------------------|
|-------------------------|--------------------------|
|-------------------------|--------------------------|
|
|  E  E  E  E  E  E  E  E    E   E  E  E  E  E  E  E
|-------------------------|--------------------------|
|-------------------------|--------------------------|
|-12-12-12-12-12-12-12-12-|-12--12-12-12-12-12-12-12-|
|--x--x--x--x--x--x--x--x-|--x---x--x--x--x--x--x--x-|
|-10-10-10-10-10-10-10-10-|-10--10-10-10-10-10-10-10-|
|-------------------------|--------------------------|
|
|  W                        +W
|-------------------------|--------------------------|
|--8----------------------|-(8)----------------------|
|-------------------------|--------------------------|
|-------------------------|--------------------------|
|-------------------------|--------------------------|
|-------------------------|--------------------------|


  E E E E E E E E    E  E E E E E E E  4x
|-----------------|--------------------||
|---0---0---0---0-|-----0---0-0-------o||
|-----5---5---5---|--5----5-----5-5-5--||
|-----------------|--------------------||
|-----------------|-------------------o||
|-----------------|--------------------||
|
| E E E E E E E E    E  E E E E E E E  4x
|-----------------|--------------------||
|-----------------|-------------------o||
|-9-9-9-9-9-9-9-9-|--9--9-9-9-9-9-9-9--||
|-x-x-x-x-x-x-x-x-|--x--x-x-x-x-x-x-x--||
|-7-7-7-7-7-7-7-7-|--7--7-7-7-7-7-7-7-o||
|-----------------|--------------------||
|
| W                 +W                 4x
|-----------------|--------------------||
|-5---------------|-(5)---------------o||
|-----------------|--------------------||
|-----------------|--------------------||
|-----------------|-------------------o||
|-----------------|--------------------||


   "Your whites shine.."
    N.C.
    E E E E E E E E    E  E E E E E E E   E E E E E E E E    E  E E E E E E E
||------------------|-------------------|-----------------|--------------------|
||o-----------------|-------------------|-----------------|--------------------|
||----5-5-5-5-5-5-5-|--5--5-5-5-5-5-5-5-|---4-4-4-4-4-4-4-|--4--4-4-4-4-4-4-4--|
||----x-x-x-x-x-x-x-|--x--x-x-x-x-x-x-x-|---x-x-x-x-x-x-x-|--x--x-x-x-x-x-x-x--|
||o---3-3-3-3-3-3-3-|--3--3-3-3-3-3-3-3-|---2-2-2-2-2-2-2-|--2--2-2-2-2-2-2-2--|
||------------------|-------------------|-----------------|--------------------|
|
|   E E E E E E E E    E  E E E E E E E   E E E E E E E E    E  E E E E E E E
||------------------|-------------------|-----------------|--------------------|
||o-----------------|-------------------|-----------------|--------------------|
||--9-9-9-9-9-9-9-9-|--9--9-9-9-9-9-9-9-|-7-7-7-7-7-7-7-7-|--7--7-7-7-7-7-7-7--|
||--x-x-x-x-x-x-x-x-|--x--x-x-x-x-x-x-x-|-x-x-x-x-x-x-x-x-|--x--x-x-x-x-x-x-x--|
||o-7-7-7-7-7-7-7-7-|--7--7-7-7-7-7-7-7-|-5-5-5-5-5-5-5-5-|--5--5-5-5-5-5-5-5--|
||------------------|-------------------|-----------------|--------------------|
|
|   W                 +W                  W                 +W
||------------------|-------------------|-----------------|--------------------|
||o-5---------------|-(5)---------------|-----------------|--------------------|
||------------------|-------------------|-7---------------|-(7)----------------|
||------------------|-------------------|-----------------|--------------------|
||o-----------------|-------------------|-----------------|--------------------|
||------------------|-------------------|-----------------|--------------------|


  N.C.
   E  E  E  E  E  E  E  E    E   E  E  E  E  E  E  E
|-------------------------|--------------------------|
|-------------------------|--------------------------|
|-----9--9--9--9--9--9--9-|--9---9--9--9--9--9--9--9-|
|-----x--x--x--x--x--x--x-|--x---x--x--x--x--x--x--x-|
|-----7--7--7--7--7--7--7-|--7---7--7--7--7--7--7--7-|
|-------------------------|--------------------------|
|
|  E  E  E  E  E  E  E  E    E   E  E  E  E  E  E  E
|-------------------------|--------------------------|
|-------------------------|--------------------------|
|-12-12-12-12-12-12-12-12-|-12--12-12-12-12-12-12-12-|
|--x--x--x--x--x--x--x--x-|--x---x--x--x--x--x--x--x-|
|-10-10-10-10-10-10-10-10-|-10--10-10-10-10-10-10-10-|
|-------------------------|--------------------------|
|
|  W                        +W
|-------------------------|--------------------------|
|--8----------------------|-(8)----------------------|
|-------------------------|--------------------------|
|-------------------------|--------------------------|
|-------------------------|--------------------------|
|-------------------------|--------------------------|


  E E E E E E E E    E  E E E E E E E  4x
|-----------------|--------------------||
|-----------------|-------------------o||
|---9-9-9-9-9-9-9-|--9--9-9-9-9-9-9-9--||
|---x-x-x-x-x-x-x-|--x--x-x-x-x-x-x-x--||
|---7-7-7-7-7-7-7-|--7--7-7-7-7-7-7-7-o||
|-----------------|--------------------||
|
| E E E E E E E E    E  E E E E E E E  4x
|-----------------|--------------------||
|-----------------|-------------------o||
|-9-9-9-9-9-9-9-9-|--9--9-9-9-9-9-9-9--||
|-x-x-x-x-x-x-x-x-|--x--x-x-x-x-x-x-x--||
|-7-7-7-7-7-7-7-7-|--7--7-7-7-7-7-7-7-o||
|-----------------|--------------------||
|
| W                 +W                 4x
|-----------------|--------------------||
|-5---------------|-(5)---------------o||
|-----------------|--------------------||
|-----------------|--------------------||
|-----------------|-------------------o||
|-----------------|--------------------||


 Outro
  N.C.
 8/8
  E E E E E E E E    E  E E E E E E E   E E E E E E E E    E  E E E E E E E
|-----------------|-------------------|-----------------|--------------------|
|-----------------|-------------------|-----------------|--------------------|
|---5-5-5-5-5-5-5-|--5--5-5-5-5-5-5-5-|---4-4-4-4-4-4-4-|--4--4-4-4-4-4-4-4--|
|---x-x-x-x-x-x-x-|--x--x-x-x-x-x-x-x-|---x-x-x-x-x-x-x-|--x--x-x-x-x-x-x-x--|
|---3-3-3-3-3-3-3-|--3--3-3-3-3-3-3-3-|---2-2-2-2-2-2-2-|--2--2-2-2-2-2-2-2--|
|-----------------|-------------------|-----------------|--------------------|
|
| E E E E E E E E    E  E E E E E E E   E E E E E E E E    E  E E E E E E E
|-----------------|-------------------|-----------------|--------------------|
|-----------------|-------------------|-----------------|--------------------|
|-9-9-9-9-9-9-9-9-|--9--9-9-9-9-9-9-9-|-7-7-7-7-7-7-7-7-|--7--7-7-7-7-7-7-7--|
|-x-x-x-x-x-x-x-x-|--x--x-x-x-x-x-x-x-|-x-x-x-x-x-x-x-x-|--x--x-x-x-x-x-x-x--|
|-7-7-7-7-7-7-7-7-|--7--7-7-7-7-7-7-7-|-5-5-5-5-5-5-5-5-|--5--5-5-5-5-5-5-5--|
|-----------------|-------------------|-----------------|--------------------|
|
| W                 +W                  W                 +W
|-8---------------|-(8)---------------|-7---------------|-(7)----------------|
|-----------------|-------------------|-----------------|--------------------|
|-----------------|-------------------|-----------------|--------------------|
|-----------------|-------------------|-----------------|--------------------|
|-----------------|-------------------|-----------------|--------------------|
|-----------------|-------------------|-----------------|--------------------|


  N.C.
   E  E  E  E  E  E  E  E    E   E  E  E  E  E  E  E
|-------------------------|--------------------------|
|-------------------------|--------------------------|
|-----9--9--9--9--9--9--9-|--9---9--9--9--9--9--9--9-|
|-----x--x--x--x--x--x--x-|--x---x--x--x--x--x--x--x-|
|-----7--7--7--7--7--7--7-|--7---7--7--7--7--7--7--7-|
|-------------------------|--------------------------|
|
|  E  E  E  E  E  E  E  E    E   E  E  E  E  E  E  E
|-------------------------|--------------------------|
|-------------------------|--------------------------|
|-12-12-12-12-12-12-12-12-|-12--12-12-12-12-12-12-12-|
|--x--x--x--x--x--x--x--x-|--x---x--x--x--x--x--x--x-|
|-10-10-10-10-10-10-10-10-|-10--10-10-10-10-10-10-10-|
|-------------------------|--------------------------|
|
|  W                        +W
|-------------------------|--------------------------|
|-------------------------|--------------------------|
|--9----------------------|-(9)----------------------|
|-------------------------|--------------------------|
|-------------------------|--------------------------|
|-------------------------|--------------------------|


   E   E  E  E  E  E  E  E    E   E  E  E  E  E  E  E
|--------------------------|--------------------------|
|--------------------------|--------------------------|
|------9--9--9--9--9--9--9-|--9---9--9--9--9--9--9--9-|
|------x--x--x--x--x--x--x-|--x---x--x--x--x--x--x--x-|
|------7--7--7--7--7--7--7-|--7---7--7--7--7--7--7--7-|
|--------------------------|--------------------------|
|
|  E   E  E  E  E  E  E  E    E   E  E  E  E  E  E  E
|--------------------------|--------------------------|
|--------------------------|--------------------------|
|-14--14-14-14-14-14-14-14-|-14--14-14-14-14-14-14-14-|
|--x---x--x--x--x--x--x--x-|--x---x--x--x--x--x--x--x-|
|-12--12-12-12-12-12-12-12-|-12--12-12-12-12-12-12-12-|
|--------------------------|--------------------------|
|
| +W                         +W
|--------------------------|--------------------------|
|--------------------------|--------------------------|
|-(9)----------------------|-(9)----------------------|
|--------------------------|--------------------------|
|--------------------------|--------------------------|
|--------------------------|--------------------------|


  N.C.
  E E E E E E E E    E  E E E E E E E   E E E E E E E E    E  E E E E E E E
|-----------------|-------------------|-----------------|-------------------|
|-----------------|-------------------|-----------------|-------------------|
|---5-5-5-5-5-5-5-|--5--5-5-5-5-5-5-5-|---4-4-4-4-4-4-4-|--4--4-4-4-4-4-4-4-|
|---x-x-x-x-x-x-x-|--x--x-x-x-x-x-x-x-|---x-x-x-x-x-x-x-|--x--x-x-x-x-x-x-x-|
|---3-3-3-3-3-3-3-|--3--3-3-3-3-3-3-3-|---2-2-2-2-2-2-2-|--2--2-2-2-2-2-2-2-|
|-----------------|-------------------|-----------------|-------------------|
|
| E E E E E E E E    E  E E E E E E E   E E E E E E E E    E  E E E E E E E
|-----------------|-------------------|-----------------|-------------------|
|-----------------|-------------------|-----------------|-------------------|
|-9-9-9-9-9-9-9-9-|--9--9-9-9-9-9-9-9-|-7-7-7-7-7-7-7-7-|--7--7-7-7-7-7-7-7-|
|-x-x-x-x-x-x-x-x-|--x--x-x-x-x-x-x-x-|-x-x-x-x-x-x-x-x-|--x--x-x-x-x-x-x-x-|
|-7-7-7-7-7-7-7-7-|--7--7-7-7-7-7-7-7-|-5-5-5-5-5-5-5-5-|--5--5-5-5-5-5-5-5-|
|-----------------|-------------------|-----------------|-------------------|
|
| W                 +W                  W                 +W
|-8---------------|-(8)---------------|-7---------------|-(7)---------------|
|-----------------|-------------------|-----------------|-------------------|
|-----------------|-------------------|-----------------|-------------------|
|-----------------|-------------------|-----------------|-------------------|
|-----------------|-------------------|-----------------|-------------------|
|-----------------|-------------------|-----------------|-------------------|


  N.C.
   E  E  E  E  E  E  E  E    E   E  E  E  E  E  E  E
|-------------------------|--------------------------|
|-------------------------|--------------------------|
|-----9--9--9--9--9--9--9-|--9---9--9--9--9--9--9--9-|
|-----x--x--x--x--x--x--x-|--x---x--x--x--x--x--x--x-|
|-----7--7--7--7--7--7--7-|--7---7--7--7--7--7--7--7-|
|-------------------------|--------------------------|
|
|  E  E  E  E  E  E  E  E    E   E  E  E  E  E  E  E
|-------------------------|--------------------------|
|-------------------------|--------------------------|
|-12-12-12-12-12-12-12-12-|-12--12-12-12-12-12-12-12-|
|--x--x--x--x--x--x--x--x-|--x---x--x--x--x--x--x--x-|
|-10-10-10-10-10-10-10-10-|-10--10-10-10-10-10-10-10-|
|-------------------------|--------------------------|
|
|  W                        +W
|-------------------------|--------------------------|
|-------------------------|--------------------------|
|--9----------------------|-(9)----------------------|
|-------------------------|--------------------------|
|-------------------------|--------------------------|
|-------------------------|--------------------------|


   E   E  E  E  E  E  E  E     E   E  E  E  E  E E E
|--------------------------|-------------------------||
|--------------------------|-------------------------||
|------9--9--9--9--9--9--9-|---9---9--9--9--9--9-9-9-||
|------x--x--x--x--x--x--x-|---x---x--x--x--x--x-x-x-||
|------7--7--7--7--7--7--7-|---7---7--7--7--7--7-7-7-||
|--------------------------|-------------------------||
|
|                                                PM|
|  E   E  E  E  E  E  E  E     E   E  E  E  E  E E E
|-17--17-17-17-17-17-17-17-|--17--17-17-17-17-17-----||
|--x---x--x--x--x--x--x--x-|---x---x--x--x--x--x-----||
|-14--14-14-14-14-14-14-14-|--14--14-14-14-14-14-----||
|--x---x--x--x--x--x--x--x-|---x---x--x--x--x--x-----||
|-12--12-12-12-12-12-12-12-|--12--12-12-12-12-12-0-0-||
|--------------------------|---------------------0-0-||
|
|  W                          +W
|--------------------------|-------------------------||
|-10-----------------------|-(10)--------------------||
|-(9)----------------------|--(9)--------------------||
|--------------------------|-------------------------||
|--------------------------|-------------------------||
|--------------------------|-------------------------||


 Final Chord
  E5
 2/2
  Gtrs I, II
  W          +W           +W           +W
|----------|------------|------------|--------|
|----------|------------|------------|--------|
|----------|------------|------------|--------|
|-2--------|-(2)--------|-(2)--------|-(2)----|
|-2--------|-(2)--------|-(2)--------|-(2)----|
|-2--------|-(2)--------|-(2)--------|-(2)----|


    E5
    +W           +W           +W           +W      4x
||-------------|------------|------------|---------||
||o------------|------------|------------|--------o||
||-------------|------------|------------|---------||
||--(2)--------|-(2)--------|-(2)--------|-(2)-----||
||o-(2)--------|-(2)--------|-(2)--------|-(2)----o||
||--(2)--------|-(2)--------|-(2)--------|-(2)-----||
Добавлено: 18.08.2013
Другие материалы по этой песне:
  • Аккорды и текст

Страница создана 18.08.2013
http://primanota.ru/norma-jean/bless-the-martyr-and-kiss-the-child-chords.htm
Привет, Гость.
Предлагаем пройти революционный курс по гитаре.
Подарок от PrimaNota.Ru, забирай!