PrimaNota.ru - самый крупный в мире бесплатный архив песенных текстов, аккордов, табулатур и нот


Norma Jean - Cemetery Like Stage - таба, видео

Регистрация Запомнить меня
Войти через:  Facebook Google Twitter Vk Yandex Mail.ru

Norma Jean - Cemetery Like Stage - таба, видео

Печатать
Просмотров: 74
------------------------------------------------------------------------
			     Cemetery Like Stage - Norma Jean
------------------------------------------------------------------------
Tabbed by: Klee1688

This is a really beautiful song. I don't know why no one has tabbed it yet.


Tuning:Db Ab Db Gb Bb Eb

Intro  0:11
eb|----------------------------------------------------------------------|
Bb|----------------------------------------------------------------------|
Gb|----------------------------------------------------------------------|
Db|----------------------------------------------------------------------|
Ab|-7p0-------7p0-------------7p0-------7p0------7p0------------7p0------|
Db|-----7/10------7/10-10-10------7/10------7/10-----7/10-10-10-----7/10-|

      
  0:17         Listen to the song for this part.
eb|------------------------------------------------|
Bb|------------------------------------------------|
Gb|------------------------------------------------|
Db|------------------------------------------------|
Ab|------------------------------------------------|
Db|--12p0-12p0-0-12p0-12p0-12p0-0-0-12p0-----------|

0:26         
eb|------------------------------------------------------------------|
Bb|-----3-3----3-3-----3-3-----3-3------3-3-----3-3-----3-3------3-3-|
Gb|-----4-4----4-4-----4-4-----4-4------4-4-----4-4-----4-4------4-4-|x2
Db|-0-3-----0-3----0-3-----0-3------0-2----0-2------0-2------0-2-----|
Ab|-0-3-----0-3----0-3-----0-3------0-2----0-2------0-2------0-2-----|
Db|-0-3-----0-3----0-3-----0-3------0-2----0-2------0-2------0-2-----|


0:51   guitar 1
eb|---------------------------------------|
Bb|---------------------------------------|
Gb|---------------------------------------|
Db|-0-333/777\222222--333/777\2222--------|
Ab|---------------------------------------|
Db|---------------------------------------|

1:01   guitar 2
eb|---------------------------------------------------------------------|
Bb|---------------------------------------------------------------------|
Gb|-9p0------9p0-------------9p0------9p0------9p0------------9p0-------|
Db|-----7/10-----7/10-10-10------7/10-----7/10-----7/10-10-10-----7/10--|
Ab|---------------------------------------------------------------------|
Db|---------------------------------------------------------------------|

1:12
eb|------------------------------------------|
Bb|--13-13-13-13-13-13-13-13-13-13-13--------|
Gb|--14-14-14-14-14-14-14-14-14-14-14--------|
Db|------------------------------------------|
Ab|------------------------------------------|
Db|------------------------------------------|

1:45
eb|------------------------------------------------------------------|
Bb|------------------------------------------------------------------|
Gb|------------------------------------------------------------------|
Db|------------------------------------------------------------------|
Ab|-7p0-------7p0-------------7p0-------7p0------7p0-----------------|
Db|-----7/10------7/10-10-10------7/10------7/10-----7/10-10-10------|

1:51
eb|------------------------------------------------------------|
Bb|------------------------------------------------------------|
Gb|------------------------------------------------------------|x2
Db|-7-7-7--10-10-3~----7-7-7--10-10-3~----7--3--0~----7--3--0~-|
Eb|-7-7-7--10-10-3~----7-7-7--10-10-3~----7--3--0~----7--3--0~-|
Db|-7-7-7--10-10-3~----7-7-7--10-10-3~----7--3--0~----7--3--0~-|

2:12
eb|------------------------------------------------------------------|
Bb|-----3-3----3-3-----3-3-----3-3------3-3-----3-3-----3-3------3-3-|
Gb|-----4-4----4-4-----4-4-----4-4------4-4-----4-4-----4-4------4-4-|x2
Db|-0-3-----0-3----0-3-----0-3------0-2----0-2------0-2------0-2-----|
Ab|-0-3-----0-3----0-3-----0-3------0-2----0-2------0-2------0-2-----|
Db|-0-3-----0-3----0-3-----0-3------0-2----0-2------0-2------0-2-----|


2:44
eb|-----------------------------------------------------------|
Bb|-----------------------------------------------------------|
Gb|---------5-5----------5-5-5---------5-5-5--------5-5-5-5---|
Db|--7-7-7-------7-7-7-7---------7-7-7--------7-7-7-----------|
Ab|-----------------------------------------------------------|
Db|-----------------------------------------------------------|
PM   . . .  . .  . . . . . . .   . . . . . .  . . . . . . . 

 
3:06    guitar 1
eb|------------------------------------------------------------|
Bb|------------------------------------------------------------|
Gb|------------------------------------------------------------|x2
Db|-7-7-7--10-10-3~----7-7-7--10-10-3~----7--3--0~----7--3--0~-|
Eb|-7-7-7--10-10-3~----7-7-7--10-10-3~----7--3--0~----7--3--0~-|
Db|-7-7-7--10-10-3~----7-7-7--10-10-3~----7--3--0~----7--3--0~-|

3:18    guitar 2
eb|---------------------------------------------------------------------|
Bb|---------------------------------------------------------------------|
Gb|-9p0------9p0-------------9p0------9p0------9p0------------9p0-------|
Db|-----7/10-----7/10-10-10------7/10-----7/10-----7/10-10-10-----7/10--|
Ab|---------------------------------------------------------------------|
Db|---------------------------------------------------------------------|

3:30    guitar 1           
eb|-----------------------------|  |--------------------------------|
Bb|------10h12-10---8-8---------|  |-----8h10-8---------------------|
Gb|--9-9----------9-----9h12-12-|  |-9-9--------9-7/9-9-9--7/9-9-9--|x2
Db|-----------------------------|x2|--------------------------------|
Ab|-----------------------------|  |--------------------------------|
Db|-----------------------------|  |--------------------------------|

3:52
eb|----------------------------------------------------------------------|
Bb|----------------------------------------------------------------------|
Gb|----------------------------------------------------------------------|
Db|----------------------------------------------------------------------|
Ab|-7p0-------7p0-------------7p0-------7p0------7p0------------7p0------|
Db|-----7/10------7/10-10-10------7/10------7/10-----7/10-10-10-----7/10-|


eb|-----------------------------------------------------------|
Bb|-----------------------------------------------------------|
Gb|-----------------------------------------------------------|
Db|--7--3-3--0~-----------------------------------------------|
Ab|--7--3-3--0~-----------------------------------------------|
Db|--7--3-3--0~-----------------------------------------------|

                    END

| /  slide up
| \  slide down
| h  hammer-on
| p  pull-off
| ~  vibrato
| +  harmonic
| x  Mute note
=====================================================================
Добавлено: 14.11.2013
Другие материалы по этой песне:
  • Аккорды и текст

Страница создана 14.11.2013
http://primanota.ru/norma-jean/cemetery-like-stage-chords.htm
Привет, Гость.
Предлагаем пройти революционный курс по гитаре.
Подарок от PrimaNota.Ru, забирай!