PrimaNota.ru - самый крупный в мире бесплатный архив песенных текстов, аккордов, табулатур и нот


Norma Jean - Blood Burner - таба, видео

Регистрация Запомнить меня
Войти через:  Facebook Google Twitter Vk Yandex Mail.ru

Norma Jean - Blood Burner - таба, видео

Печатать
Просмотров: 71
-----------------------------------------------------------------
Blood Burner - Norma Jean
-----------------------------------------------------------------
Tabbed by: Jake Miller (millarso)
Email: millarso2.0@gmail.com
Tuning: Drop Db

eb|--------|
Bb|--------|
Gb|--------|
Db|----13--|
Ab|-----x--|
Db|--0/13--|

Section 1
eb|---------7---6-----------------------------------7---6---------7---6-------------------------|
Bb|---------x---x-----------------------------------x---x---------x---x-------------------------|
Gb|---------4---3-----12-12-12-12---12-12-----------4---3---------4---3-----12-12-12-12---12-12-|
Db|-8-5-0-3-----------11-11-11-11-0-11-11-0-3-6-0-3-------0-5-0-3-----------11-11-11-11-0-11-11-|
Ab|-8-5-0-3---0---0-3/10-10-10-10-0-10-10-0-x-x-0-x---0---0-5-0-3---0---0-3/10-10-10-10-0-10-10-|
Db|-8-5-0-3---0---0-3/------------0-------0-3-6-0-3---0---0-5-0-3---0---0-3/------------0-------|
              .                                       .             .

Section 2
eb|---------|------------------------------------------------|
Bb|---------|------------------------------------------------|
Gb|---------|---------------------------------7p0------------|
Db|-8-5-0-3-|-2-<2222>-2-<2222>-12\2-<2222>-2-x-x-7-5-0-5-0--|x2
Ab|-8-5-0-3-|-2-<2222>-2-<2222>-12\2-<2222>-2-5p0-x-x-0-x-0--|
Db|-8-5-0-3-|-2-<2222>-2-<2222>-12\2-<2222>-2-----7-5-0-5-0--|
  (1st time)

eb|------------------------------------------|
Bb|------------------------------------------|
Gb|---------------------------7p0------------|
Db|-2-0000-2-0000-12\2-0000-2-x-x-7-5-0-5-0--|x2
Ab|-2-0000-2-0000-12\2-0000-2-5p0-x-x-0-x-0--|
Db|-2-0000-2-0000-12\2-0000-2-----7-5-0-5-0--|
      ....   ....      ....

Section 3
Guitar 1 (tremolo picks entire section)
eb|---------|
Bb|---------|
Gb|---------|
Db|---------|
Ab|---------|
Db|-0000000-|

Guitar 2
eb|-------------------------------------------------------------------|
Bb|-------------------------------------------------------------------|
Gb|-------------------------------------------------------------------|
Db|---------------8-5-0-3---------8-5-0-3~---------8-5-0-3-0--3--0--3-|
Ab|---------------x-x-0-x---------x-x-0-x----------x-x-0-x-0--x--0--x-|
Db|-(guitar-1-TP)-8-5-0-3-(gtr-1)-8-5-0-3~-(gtr-1)-8-5-0-3-0--3--0--3-|

Section 4
eb|-7---6--------------------------------------------------------------------------------------|
Bb|-x---x--------------------------------------------------------------------------------------|
Gb|-4---3-----12-12-12-12---12-12--------------------------------12-12-12-12---12-12-----------|
Db|-----------11-11-11-11-0-11-11-0-3-5-0-3-6--5--3-5-0-3-6--5---11-11-11-11-0-11-11-0-8-5-0-3-|x2
Ab|---0---0-3/10-10-10-10-0-10-10-0-x-x-0-x-x--x--x-x-0-x-x--x-3/10-10-10-10-0-10-10-0-8-5-0-3-|
Db|---0---0-3/------------0-------0-3-5-0-3-6--5--3-5-0-3-6--5-3/------------0-------0-8-5-0-3-|

Section 5
eb|------------------------------------------------|
Bb|------------------------------------------------|
Gb|---------------------------------7p0------------|
Db|-2-<2222>-2-<2222>-12\2-<2222>-2-x-x-7-5-0-5-0--|x4
Ab|-2-<2222>-2-<2222>-12\2-<2222>-2-5p0-x-x-0-x-0--|
Db|-2-<2222>-2-<2222>-12\2-<2222>-2-----7-5-0-5-0--|

eb|----------------------------------------|
Bb|----------------------------------------|
Gb|-------------------------7p0------------|
Db|-------------------------x-x-7-5-0-5-0--|
Ab|-------------------------5p0-x-x-0-x-0--|
Db|-(drums/guitar-feedback)-----7-5-0-5-0--|

eb|------------------------------------------|
Bb|------------------------------------------|
Gb|---------------------------7p0------------|
Db|-2-0000-2-0000-12\2-0000-2-x-x-7-5-0-5-0--|x2
Ab|-2-0000-2-0000-12\2-0000-2-5p0-x-x-0-x-0--|
Db|-2-0000-2-0000-12\2-0000-2-----7-5-0-5-0--|
      ....   ....      ....

Section 6
Guitar 1                                           "TWO,THREE,FOUR..."
eb|------------------------------------------------------------------|
Bb|------------------------------------------------------------------|
Gb|--------------------------------------8-----------------------8b9-|
Db|-2---2---2---2---1---1---1---1---0----7-(strum-while-bending)-7b8-|
Ab|-2---2---2---2---1---1---1---1---0----6-----------------------6b7-|
Db|-2---2---2---2---1---1---1---1---0--------------------------------|

Guitar 2
eb|-----------------------------------------------------|
Bb|-----------------------------------------------------|
Gb|-----------------------------------------------------|
Db|-2---2---2---2---1---1---1---1---0-----\\\\\\\\\\\\--|
Ab|-2---2---2---2---1---1---1---1---0-----\pick-slide\--|
Db|-2---2---2---2---1---1---1---1---0-----\\\\\\\\\\\\--|

Section 7 (Open whole notes with various dissonant background sounds, this could be way off)
Guitar 1
eb|----------------------------------------------------------------|
Bb|----------------------------------------------------------------|
Gb|------------------------------------8-----------------------8b9-|
Db|-0~---------0~----------0~----------7-(strum-while-bending)-7b8-|
Ab|-0~---------0~----------0~----------6-----------------------6b7-|
Db|-0~---------0~----------0~--------------------------------------|

Guitar 2
eb|----------------------------------------------------|
Bb|----------------------------------------------------|
Gb|--------------7------7b---7------7b-----------------|
Db|-0~---------0-6(x12)-6b-0-6(x12)-6b-0-////////////--|
Ab|-0~---------0-5------5b-0-5------5b-0-/pick-slide/--|
Db|-0~---------0-----------0-----------0-////////////--|

You're probably better off just messing around with random dissonant chords
than following this exactly, but you get the idea. It's supposed to be chaotic.

Section 8                        Last Ending
eb|-----------------|-----------|------------|
Bb|-----------------|-----------|------------|
Gb|-----------------|-----------|------------|
Db|-0------0------0-|-----0-0-0-|-----0------|x4
Ab|-0--0-0-0--0-0-0-|-0-0-0-0-0-|-0-0-0--0-0-|(slow way down on last repeat)
Db|-0--0-0-0--0-0-0-|-0-0-0-0-0-|-0-0-0--0-0-|
       . .    . .     . .         . .    . .

Guitar 1
eb|--------------------------------------------------------|
Bb|--------------------------------------------------------|
Gb|--------------------------------------------------------|
Db|-0-------------0-------------0-------------0------3--2--|
Ab|-0-------------0-------------0-------------0------x--x--|
Db|-0----3/17~----0-----3b--2b--0-3/17(x8)17b-0------3--2--|

Guitar 2
eb|--------------------------------------------------------|
Bb|--------------------------------------------------------|
Gb|---------------------------------12b14------------------|
Db|-0-------5b7---0-------------0-------------0------3--2--|
Ab|-0-------------0------3b--2--0-------------0------x--x--|
Db|-0-------------0-------------0-------------0------3--2--|

Guitar 1
eb|---------------------------------------------------------------------------------|
Bb|---------------------------------------------------------------------------------|
Gb|---------------------------------------------------------------------------------|
Db|-0-------------0------3b--2--0-------------0------3b-2b-0------------------------|
Ab|-0-------------0------x---x--0-------------0------x--x--0------------------------|
Db|-0----3/17b----0------3b--2--0-3/17\15/17b-0------3b-2b-0------(feedback)--------|

Guitar 2
eb|---------------------------------------------------------------------------------|
Bb|---------------------------------------------------------------------------------|
Gb|---------------------------------------------------------------------------------|
Db|-0------0/5*b--0------3b--2--0---0/5\4/5*b-0------3b-2b-0------------------------|Fin
Ab|-0-------------0------x---x--0-------------0------x--x--0------------------------|
Db|-0-------------0------3b--2--0-------------0------3b-2b-0-(detune-bottom-string)-|

This song is so detuned and chaotic that I wouldn't be surprised if this tab doesn't
accurately cover the end of the song, but the rest of it should be accurate.

Please rate & comment
Thanks,
millarso
Добавлено: 06.12.2013
Другие материалы по этой песне:
  • Аккорды и текст

Страница создана 06.12.2013
http://primanota.ru/norma-jean/blood-burner-chords.htm
Привет, Гость.
Предлагаем пройти революционный курс по гитаре.
Подарок от PrimaNota.Ru, забирай!