PrimaNota.ru - самый крупный в мире бесплатный архив песенных текстов, аккордов, табулатур и нот


Norma Jean - Coffinspire Multitudes Multitudes In The Valley Of Decision - таба, видео

Регистрация Запомнить меня
Войти через:  Facebook Google Twitter Vk Yandex Mail.ru

Norma Jean - Coffinspire Multitudes Multitudes In The Valley Of Decision - таба, видео

Печатать
Просмотров: 70
Gtr I (Db Ab Db Gb Bb B) - 'Scottie'
Gtr II (Db Ab Db Gb Bb B) - 'Chris'

              Q=115
 4/4
  Gtr I
   E  S  S  E E  E  S  S  E  E E
|--------------------------------|
|--------------------------------|
|-18-18-18-18Sx-18-18-18-18-18Sx-|
|--------------------------------|
|-17-17-17-17Sx-17-17-17-17-17Sx-|
|--------------------------------|
|
| Gtr II
|--------------------------------|
|--------------------------------|
|--------------------------------|
|--------------------------------|
|--------------------------------|
|--------------------------------|


   S  S  E  E S  S  S  S  E  E E    S  S  E  E S  S  S  S  E  E E
|--------------------------------|---------------------------------|
|--------------------------------|---------------------------------|
|-18-18-18-18Sx-18-18-18-18-18Sx-|-18-18-18-18Sx-18-18-18-18-18Sx--|
|--------------------------------|---------------------------------|
|-17-17-17-17Sx-17-17-17-17-17Sx-|-17-17-17-17Sx-17-17-17-17-17Sx--|
|--------------------------------|---------------------------------|
|
|  S  S  E  E S  S  S  S  E  E E    S  S  E  E S  S  S  S  E  E E
|--------------------------------|---------------------------------|
|--------------------------------|---------------------------------|
|-18-18-18-18Sx-18-18-18-18-18Sx-|-18-18-18-18Sx-18-18-18-18-18Sx--|
|--------------------------------|---------------------------------|
|-17-17-17-17Sx-17-17-17-17-17Sx-|-17-17-17-17Sx-17-17-17-17-17Sx--|
|--------------------------------|---------------------------------|


                                    TP  TP  TP
   S  S  E  E S  S  S  S  E  E E    E.  E.  E  E Q.
|--------------------------------|------------------|
|--------------------------------|------------------|
|-18-18-18-18Sx-18-18-18-18-18Sx-|-18--18--18-18----|
|--------------------------------|------------------|
|-17-17-17-17Sx-17-17-17-17-17Sx-|-17--17--17-17----|
|--------------------------------|------------------|
|
|                                   TP  TP  TP
|  S  S  E  E S  S  S  S  E  E E    E.  E.  E  E Q.
|--------------------------------|------------------|
|--------------------------------|------------------|
|-18-18-18-18Sx-18-18-18-18-18Sx-|-18--18--18-18----|
|--------------------------------|------------------|
|-17-17-17-17Sx-17-17-17-17-17Sx-|-17--17--17-17----|
|--------------------------------|------------------|


    E.   E    E. E.   E    E.   E.   E    E.  Q      Q      3x
||----------------------------|-----------------------------||
||o---------------------------|----------------------------o||
||----------------------------|-----------------------------||
||----------------------------|-----------------------------||
||o-0---------0--0---------0--|-0---------0---8b8.5--8b8.5-o||
||--0---(2)b3-0--0---(2)b3-0--|-0---(2)b3-0---8------8------||
|
|   E.   E    E. E.   E    E.   E.   E    E.  Q      Q      3x
||----------------------------|-----------------------------||
||o---------------------------|----------------------------o||
||----------------------------|-----------------------------||
||----------------------------|-----------------------------||
||o-0---------0--0---------0--|-0---------0---8b8.5--8b8.5-o||
||--0---(2)b3-0--0---(2)b3-0--|-0---(2)b3-0---8------8------||


    E.     S S E S E. S S E S   E. S S E S Q  Q
||----------------------------|-------------------||
||o---------------------------|------------------o||
||----------------------------|-------------------||
||---------0---0------0---0---|----0---0---8--8---||
||o--------0---0------0---0---|----0---0---8--8--o||
||---------0---0------0---0---|----0---0---8--8---||
|
|   S  S S S S E S E. S S E S   E. S S E S Q  Q
||----------------------------|-------------------||
||o---------------------------|------------------o||
||----------------------------|-------------------||
||--x--x-x-0---0------0---0---|----0---0---8--8---||
||o-x--x-x-0---0------0---0---|----0---0---8--8--o||
||--x--x-x-0---0------0---0---|----0---0---8--8---||


      E.   S S E   S E.   S S E S
|-||------------------------------------|
|-||o-----------------------------------|
|-||------------------------------------|
|-||-------0---0----------0---0---------|
|-||o------0---0----------0---0---------|
|-||-------0---0----------0---0---------|
|
|     S  S S S S S S S  S S S S S S S S
|-||------------------------------------|
|-||o-6-----------------6---------------|
|-||-----4---7-----7------4---7-----7---|
|-||-------7---7-7---7------7---7-7---7-|
|-||o-----------------------------------|
|-||------------------------------------|


                                      2/4               4/4
  E.     S S E   S Q       Q           H                 E E S E E E S E E
|-----------------------------------||---------------||---------------------|
|----------------------------------o||---------------||o-2---------2--------|
|-----------------------------------||---------------||--------3-------3----|
|--------0---0-----8-------8--------||---------------||----3-3---0---3---0--|
|--------0---0-----8-------8-------o||---------------||o--------------------|
|--------0---0-----8-------8--------||---------------||---------------------|
|
| S  S S S S S S S S S S S S S S S     S S S S S S E     E E S E E E S E E
|-----------------------------------||---------------||---------------------|
|-6----------------6---------------o||-6-------------||o-2---------2--------|
|----4---7-----7-----4---7-----7----||---4---7-6---6-||--------3-------3----|
|------7---7-7---7-----7---7-7---7--||-----7-----5---||----3-3---0---3---0--|
|----------------------------------o||---------------||o--------------------|
|-----------------------------------||---------------||---------------------|


                        |-3-| |-3-| |-3-|
  E E S E E E S E E     E E E E E E E E E Q          E.S E E  E.S E E
|--------------------||-------------------------||---------------------|
|-2---------2-------o||-2-----2-----------------||o--------------------|
|-------3-------3----||-------------2-----------||--12S9---9-12S8---8--|
|---3-3---0---3---0--||---3-3---0-0---0-0-------||---------------------|
|-------------------o||-------------------------||o-11S8---8-11S7---7--|
|--------------------||-------------------------||---------------------|
|
| E E S E E E S E E     H               Q    Q       E.S E E  E.S E E
|--------------------||-------------------------||---------------------|
|-2---------2-------o||-------------------------||o--------------------|
|-------3-------3----||---------------------21S=||==12S9---9-12S8---8--|
|---3-3---0---3---0--||-------------------------||---------------------|
|-------------------o||---------------------20S=||o=11S8---8-11S7---7--|
|--------------------||-------------------------||---------------------|


            |--3--|  |--3--|
   E.S E E  E  E  E  E  E  E
|-----------------------------||-|
|----------------------------o||-|
|-12S9---9-12-12-12-12-12-12--||-|
|-----------------------------||-|
|-11S8---8-11-11-11-11-11-11-o||-|
|-----------------------------||-|
|
|           |--3--|  |--3--|
|  E.S E E  E  E  E  E  E  E
|-----------------------------||-|
|----------------------------o||-|
|-12S9---9-12-12-12-12-12-12--||-|
|-----------------------------||-|
|-11S8---8-11-11-11-11-11-11-o||-|
|-----------------------------||-|


                                  |--3--|  |--3--|
     E.E.  E  E.E.  E    E.E.  E  E  E  E  E  E  E
||--------------------|-----------------------------||-|
||o-------------------|----------------------------o||-|
||--12S9---9-12S8---8-|-12S9---9-12-12-12-12-12-12--||-|
||--------------------|-----------------------------||-|
||o-11S8---8-11S7---7-|-11S8---8-11-11-11-11-11-11-o||-|
||--------------------|-----------------------------||-|
|
|                                 |--3--|  |--3--|
|    E.E.  E  E.E.  E    E.E.  E  E  E  E  E  E  E
||--------------------|-----------------------------||-|
||o-------------------|----------------------------o||-|
||--12S9---9-12S8---8-|-12S9---9-12-12-12-12-12-12--||-|
||--------------------|-----------------------------||-|
||o-11S8---8-11S7---7-|-11S8---8-11-11-11-11-11-11-o||-|
||--------------------|-----------------------------||-|


  E E S E E E S E E   E E S E E E S E E    E E S E E E S E E
|-------------------|-------------------|--------------------|
|-2---------2-------|-2---------2-------|------------6-------|
|-------3-------3---|-------3-------3---|-10-----7-------7---|
|---3-3---0---3---0-|---3-3---0---3---0-|----9-9-------9-----|
|-------------------|-------------------|----------8-------8-|
|-------------------|-------------------|--------------------|
|
| E E S E E E S E E   E E S E E E S E E    E E S E E E S E E
|-------------------|-------------------|--------------------|
|-2---------2-------|-2---------2-------|--2---------2-------|
|-------3-------3---|-------3-------3---|--------3-------3---|
|---3-3---0---3---0-|---3-3---0---3---0-|----3-3---0---3---0-|
|-------------------|-------------------|--------------------|
|-------------------|-------------------|--------------------|


  E E S E E E S E E        E E   S Q     E   S    S   E.
|-------------------||------------------------------------||
|-6---------6-------||o----------------------------------o||
|-------7-------7---||----10-----8-------8-------10-------||
|---9-9-------9-----||------------------------------------||
|---------8-------8-||o----9-----7-------7--------9------o||
|-------------------||------------------------------------||
|
|                                          |---3----|
| E E S E E E S E E     E  E S E   S E S S E   E    E
|-------------------||------------------------------------||
|-2---------2-------||o----------------------------------o||
|-------3-------3---||------------------------------------||
|---3-3---0---3---0-||------------------------------------||
|-------------------||o----------------------------------o||
|-------------------||-----3---2-----1---2-2---3----1-----||


     E E   S Q     E   S    S
|--------------------------------|
|--------------------------------|
|---10-----8-------8-------10----|
|--------------------------------|
|----9-----7-------7--------9----|
|--------------------------------|
|
|                    |---3----|
| E  E S E   S E S S E   E    E
|--------------------------------|
|--------------------------------|
|--------------------------------|
|--------------------------------|
|--------------------------------|
|----3---2-----1---2-2---3----1--|


  E E S Q     E   S S E.
|----------------------------|
|----------------------------|
|-------------8--------------|
|----------------------------|
|-------------7--------------|
|----------------------------|
|
|                   |--3---|
| E E S E S E   S S E    E E
|----------------------------|
|----------------------------|
|----------------------------|
|---3---2---1-----2-2----3-1-|
|---3---2---1-----2-2----3-1-|
|---3---2---1-----2-2----3-1-|


       E E   S Q     E   S    S E.     H
||----------------------------------||----------------|
||o--------------------------------o||----------------|
||----10-----8-------8-------10-----||----------------|
||----------------------------------||----------------|
||o----9-----7-------7--------9----o||----------------|
||----------------------------------||----------------|
|
|                      |---3----|
|   E  E S E   S E S S E   E    E      E.    E E S H
||----------------------------------||----------------|
||o--------------------------------o||----------------|
||----------------------------------||----------------|
||-----3---2-----1---2-2---3----1---||----------------|
||o----3---2-----1---2-2---3----1--o||----------------|
||-----3---2-----1---2-2---3----1---||-2b3---1-1------|


  E.  E E H        E.  E E. E.  E E.  3x
|--------------||---------------------||
|--------------||o-------------------o||
|--------------||---------------------||
|--------------||---------------------||
|--------------||o-------------------o||
|-2b3-1-1------||--2b3-1-1--2b3-1-1---||
|
| H                E.  E E. E.  E E.  3x
|--------------||---------------------||
|--------------||o-------------------o||
|--------------||---------------------||
|--------------||---------------------||
|--------------||o-------------------o||
|--------------||--2b3-1-1--2b3-1-1---||


  S S S  E S  E S S S  E S  E         E.  E E. E.  E E.  3x
|-------11---12-------11---12--||-||---------------------||
|-------11---12-------11---12-o||-||o-------------------o||
|------------------------------||-||---------------------||
|------------------------------||-||---------------------||
|-0-0-0----0----0-0-0---------o||-||o-------------------o||
|-0-0-0----0----0-0-0----0-----||-||--2b3-1-1--2b3-1-1---||
|
| S S S  E S  E S S S  E S  E         E.  E E. E.  E E.  3x
|-------11---12-------11---12--||-||---------------------||
|-------11---12-------11---12-o||-||o-------------------o||
|------------------------------||-||---------------------||
|------------------------------||-||---------------------||
|-0-0-0----0----0-0-0---------o||-||o-------------------o||
|-0-0-0----0----0-0-0----0-----||-||--2b3-1-1--2b3-1-1---||


    S S S  E S  E S S S  E S  E     S  S S  E   S  E S  S S  E   S  E
||--------11---12-------11---12--||--------11-----12--------11-----12-|
||o-------11---12-------11---12-o||--------11-----12--------11-----12-|
||-------------------------------||-----------------------------------|
||-------------------------------||-----------------------------------|
||o-0-0-0----0----0-0-0---------o||-0--0-0------0----0--0-0-----------|
||--0-0-0----0----0-0-0----0-----||-0--0-0------0----0--0-0------0----|
|
|   S S S  E S  E S S S  E S  E     E.   E    S    E E.   E    S    E
||--------11---12-------11---12--||-----------------------------------|
||o-------11---12-------11---12-o||-----------------------------------|
||-------------------------------||-----------------------------------|
||-------------------------------||-----------------------------------|
||o-0-0-0----0----0-0-0---------o||-----------------------------------|
||--0-0-0----0----0-0-0----0-----||-2----1----2----1-2----1----2----1-|


  S  S S  E   S  E S  S S  E.       +E
|--------11-----12--------16-------(16)-|
|--------11-----12--------16-------(16)-|
|---------------------------------------|
|---------------------------------------|
|-0--0-0------0----0--0-0---------------|
|-0--0-0------0----0--0-0---------------|
|
| E.   E    S    E E.   E     S E
|---------------------------------------|
|---------------------------------------|
|---------------------------------------|
|---------------------------------------|
|---------------------------------------|
|-2----1----2----1-2----1-----2-1-------|


    E. E S E E. E S E     E. E S E E. E S E
||---------------------||-------------------|
||o-------------------o||-------------------|
||---------------------||-------------------|
||---------------------||-------------------|
||o-1--0-1-0-1--0-1-0-o||-1--0-1-0-1--0-1-0-|
||--1--0-1-0-1--0-1-0--||-1--0-1-0-1--0-1-0-|
|
|   E. E S E E. E S E     E. E S E E. E S E
||---------------------||-------------------|
||o-------------------o||-------------------|
||---------------------||-------------------|
||---------------------||-------------------|
||o-1--0-1-0-1--0-1-0-o||-1--0-1-0-1--0-1-0-|
||--1--0-1-0-1--0-1-0--||-1--0-1-0-1--0-1-0-|


     S   S  S  S  S   S  S  S  S  S  S  S  S  S  S  S  3x
||--11--11-11-11-11--11-11-11-16-16-16-16-16-16-16-16--||
||o-11--11-11-11-11--11-11-11-16-16-16-16-16-16-16-16-o||
||-----------------------------------------------------||
||-----------------------------------------------------||
||o---------------------------------------------------o||
||-----------------------------------------------------||
|
|    E.  E  S  E  E.  E        S  E                    3x
||-----------------------------------------------------||
||o---------------------------------------------------o||
||-----------------------------------------------------||
||-----------------------------------------------------||
||o--1---0--1--0--1---0--------1--0-------------------o||
||---1---0--1--0--1---0--------1--0--------------------||


  E E S E E E S E E     E E S E E E S E E     E E S E E E S E E
|-------------------||---------------------||-------------------|
|-------------------||o-------------------o||-------------------|
|-------------------||---------------------||-------------------|
|-------------------||---------------------||-------------------|
|-----------4---1---||o-4-----1---4---1---o||---------0-4---1---|
|---------0---3---0-||----3-3---0---3---0--||---------0---3---0-|
|
| E E S E E E S E E     E E S E E E S E E     E E S E E E S E E
|-------------------||---------------------||-------------------|
|-------------------||o-------------------o||-------------------|
|-------------------||---------------------||-------------------|
|-------------------||---------------------||-------------------|
|-4-----1---4---1---||o-4-----1---4---1---o||-4-----1---4---1---|
|---3-3---0---3---0-||----3-3---0---3---0--||---3-3---0---3---0-|


                     1/4   4/4                 1/4
  E E S E E E S E E   E E   E E S E E E S E E   Q
|-------------------|-----|-------------------|---|
|-------------------|-----|-------------------|---|
|-------------------|-----|-------------------|---|
|-------------------|-----|-------------------|---|
|-4-----1---4---1---|-4---|-4-----1---4---1---|---|
|---3-3---0---3---0-|---3-|---3-3---0---3---0-|---|
|
| E E S E E E S E E   E E   E E S E E E S E E   Q
|-------------------|-----|-------------------|---|
|-------------------|-----|-------------------|---|
|-------------------|-----|-------------------|---|
|-------------------|-----|-------------------|---|
|-4-----1---4---1---|-4---|-4-----1---4---1---|---|
|---3-3---0---3---0-|---3-|---3-3---0---3---0-|---|


 4/4                 1/4    4/4
  E E S E E E S E E   Q      E E S E E E S E E         E E S E E E S E E
|-------------------|----||---------------------||-||----------------------||
|-------------------|----||o-------------------o||-||o-2---------2--------o||
|-------------------|----||---------------------||-||--------3-------3-----||
|-------------------|----||---------------------||-||----3-3---0---3---0---||
|-4-----1---4---1---|----||o-4-----1---4---1---o||-||o--------------------o||
|---3-3---0---3---0-|----||----3-3---0---3---0--||-||----------------------||
|
| E E S E E E S E E          E E S E E E S E E         E E S E E E S E E
|-------------------|----||---------------------||-||----------------------||
|-------------------|----||o-------------------o||-||o-2---------2--------o||
|-------------------|----||---------------------||-||--------3-------3-----||
|-------------------|----||---------------------||-||----3-3---0---3---0---||
|-4-----1---4---1---|----||o-4-----1---4---1---o||-||o--------------------o||
|---3-3---0---3---0-|----||----3-3---0---3---0--||-||----------------------||


    E E S E E E S E E            E E   S Q     E   S    S E.
||---------------------||-||----------------------------------||
||o-6---------6-------o||-||o--------------------------------o||
||--------7-------7----||-||----10-----8-------8-------10-----||
||----9-9-------9------||-||----------------------------------||
||o---------8-------8-o||-||o----9-----7-------7--------9----o||
||---------------------||-||----------------------------------||
|
|                                                |---3----|
|   E E S E E E S E E         E  E S E   S E S S E   E    E
||---------------------||-||----------------------------------||
||o-2---------2-------o||-||o--------------------------------o||
||--------3-------3----||-||----------------------------------||
||----3-3---0---3---0--||-||----------------------------------||
||o-------------------o||-||o----3---2-----1---2-2---3----1--o||
||---------------------||-||-----3---2-----1---2-2---3----1---||


                                 1/4
     E E   S Q     E   S    S S   Q
|-------------------------------|---|
|-------------------------------|---|
|---10-----8-------8-------10---|---|
|-------------------------------|---|
|----9-----7-------7--------9---|---|
|-------------------------------|---|
|
|                    |---3----|
| S  E S E   S E S S E   E    E   Q
|-------------------------------|---|
|-------------------------------|---|
|-------------------------------|---|
|------------------------3----1-|---|
|----3---2-----1---2-2---3----1-|---|
|----3---2-----1---2-2---3----1-|---|


  E E   S Q     E   S   S   E.        E   E   E   Q   E S   E E.
|------------------------------||---------------------------------||
|------------------------------||o-------------------------------o||
|---------------8--------------||----10-------8-------8----10-----||
|------------------------------||---------------------------------||
|---------------7--------------||o----9-------7-------7-----9----o||
|------------------------------||---------------------------------||
|
|                 |---3---|                         |-3-|
| E S E   S E S S E   E   E        E  E S E S E S E E E E
|------------------------------||---------------------------------||
|------------------------------||o-------------------------------o||
|------------------------------||---------------------------------||
|-3---2-----1---2-2---3---1----||-----3---2---1---2-2-3-1---------||
|-3---2-----1---2-2---3---1----||o----3---2---1---2-2-3-1--------o||
|-3---2-----1---2-2---3---1----||-----3---2---1---2-2-3-1---------||


      ~~~~~~~~~~~~~~~~~~~~~~~~~~~~~
      H   H    +Q  Q.  Q.     H  H
|-||--------|--------------||------|
|-||o-------|-------------o||------|
|-||--6--13-|-(13)-6--13---||-6-13-|
|-||--------|--------------||------|
|-||o-5--12-|-(12)-5--12--o||-5-12-|
|-||--------|--------------||------|
|
|     ~~~~~~~~~~~~~~~~~~~~~~~~~~
|     W        +W             W
|-||--------|--------------||------|
|-||o-------|-------------o||------|
|-||--6-----|--(6)---------||-6----|
|-||--------|--------------||------|
|-||o-5-----|--(5)--------o||-5----|
|-||--------|--------------||------|


    ~~~~~~~~~~~~~~~~~~~~~~~~~~~~~~
   +Q  Q.  Q.    H  H  +Q  Q.  Q.
|--------------|------------------|
|--------------|------------------|
|-(13)-6--13---|-6-13-(13)-6--13--|
|--------------|------------------|
|-(12)-5--12---|-5-12-(12)-5--12--|
|--------------|------------------|
|
|   ~~~~~~~~~~~~~~~~~~~~~~~
|  +W            W      W
|--------------|------------------|
|--------------|------------------|
|--(6)---------|-6------6---------|
|--------------|------------------|
|--(5)---------|-5------5---------|
|--------------|------------------|


                      ~~~~
    H     Q.    E    +Q   Q.    Q.      E Q Q.  E E
||----------------|-----------------||--------------|
||o---------------|----------------o||--------------|
||-------13----13-|-(13)-------13---||--------------|
||--0-------------|-------0---------||-10-7-7---0-0-|
||o-0----12----12-|-(12)--0----12--o||-10-7-7---0-0-|
||--0-------------|-------0---------||-10-7-7---0-0-|
|
|   H     Q.    E    +Q   Q.    Q.      E Q Q.  E E
||----------------|-----------------||--------------|
||o---------------|----------------o||--------------|
||-------13----13-|-(13)-------13---||--------------|
||--0-------------|-------0---------||-10-7-7---0-0-|
||o-0----12----12-|-(12)--0----12--o||-10-7-7---0-0-|
||--0-------------|-------0---------||-10-7-7---0-0-|


  Q  E  H    +E      H     Q.    E
|----------------||----------------|
|----------------||o---------------|
|----------------||-------13----13-|
|-5--0-10---(10)-||--0-------------|
|-5--0-10---(10)-||o-0----12----12-|
|-5--0-10---(10)-||--0-------------|
|
| Q  E  H     E      H     Q.    E
|----------------||----------------|
|----------------||o---------------|
|----------------||-------13----13-|
|-5--0-10----10--||--0-------------|
|-5--0-10----10--||o-0----12----12-|
|-5--0-10----10--||--0-------------|


   +Q  Q.   Q.      E Q Q.  E E   Q  E  H   +E
|---------------||--------------|---------------|
|--------------o||--------------|---------------|
|-(13)-----13---||--------------|---------------|
|------0--------||-10-7-7---0-0-|-5--0-10--(10)-|
|-(12)-0---12--o||-10-7-7---0-0-|-5--0-10--(10)-|
|------0--------||-10-7-7---0-0-|-5--0-10--(10)-|
|
|  +Q  Q.   Q.      E Q Q.  E E   Q  E  H   +E
|---------------||--------------|---------------|
|--------------o||--------------|---------------|
|-(13)-----13---||--------------|---------------|
|------0--------||-10-7-7---0-0-|-5--0-10--(10)-|
|-(12)-0---12--o||-10-7-7---0-0-|-5--0-10--(10)-|
|------0--------||-10-7-7---0-0-|-5--0-10--(10)-|


  Gtrs I, II
  W        +W         +E
|-------------------------|
|-------------------------|
|-------------------------|
|-0--------(0)--------(0)-|
|-0--------(0)--------(0)-|
|-0--------(0)--------(0)-|



Duration Legend
---------------
W - whole; H - half; Q - quarter; E - 8th; S - 16th; T - 32nd; X - 64th; a - acciaccatura
+ - note tied to previous; . - note dotted; .. - note double dotted
Uncapitalized letters represent notes that are staccato (1/2 duration)
Irregular groupings are notated above the duration line
Duration letters will always appear directly above the note/fret number it represents the
duration for.  Duration letters with no fret number below them represent rests.  Multi-
bar rests are notated in the form Wxn, where n is the number of bars to rest for.  Low
melody durations appear below the staff

Tablature Legend
----------------
 h   - hammer-on
 p   - pull-off
 b   - bend
 pb  - pre-bend
 r   - bend release (if no number after the r, then release immediately)
 /\  - slide into or out of (from/to "nowhere")
 s   - legato slide
 S   - shift slide
 - natural harmonic
[n]  - artificial harmonic
n(n) - tapped harmonic
 ~   - vibrato
 tr  - trill
 T   - tap
 TP  - trem. picking
 PM  - palm muting
\n/  - tremolo bar dip; n = amount to dip
 \n  - tremolo bar down
 n/  - tremolo bar up
/n\  - tremolo bar inverted dip
 =   - hold bend; also acts as connecting device for hammers/pulls
 <> - volume swell (louder/softer)
 x   - on rhythm slash represents muted slash
 o   - on rhythm slash represents single note slash

Misc Legend
-----------
 |  - bar
||  - double bar
||o - repeat start
o|| - repeat end
*|  - double bar (ending)
 :  - bar (freetime)
 $  - Segno
 &  - Coda
Tempo markers -  = BPM(8/16=s8/s16), where s8 = swing 8ths, s16 = swing 16ths

Добавлено: 01.08.2013
Другие материалы по этой песне:
  • Аккорды и текст

Страница создана 01.08.2013
http://primanota.ru/norma-jean/coffinspire-multitudes-multitudes-in-the-valley-of-decision-chords.htm
Привет, Гость.
Предлагаем пройти революционный курс по гитаре.
Подарок от PrimaNota.Ru, забирай!