PrimaNota.ru - самый крупный в мире бесплатный архив песенных текстов, аккордов, табулатур и нот


Norma Jean - If You Got It At Five You Got It At Fifty - текст песни, таба, видео

Регистрация Запомнить меня
Войти через:  Facebook Google Twitter Vk Yandex Mail.ru

Norma Jean - If You Got It At Five You Got It At Fifty - текст песни, таба, видео

Печатать
Просмотров: 210
-------------------------------------------------------------------
   If You Got It At Five, You Got It At Fifty - Norma Jean
------------------------------------------------------------
Tabbed by: millarso (Jake Miller)
E-mail: millarso2.0@gmail.com

Tuning: Drop Db/C# (Drop D half step down)

Guitar 1: Left Channel
Guitar 2: Right Channel

SECTION 1
Both Guitars (Guitar 1 plays open notes alone on first time)
Eb|---------------0---------------|
Bb|---------------0---------------|
Gb|---------------0---------------|
Db|-7-3-0-6-----------------------|x3
Ab|-7-3-0-x--0-00---3------6------|
Db|-7-3-0-6--0-00-----4~-4---7~-7-|
             . ..

Eb|---------------0------------------|
Bb|---------------0------------------|
Gb|---------------0------------------|
Db|-7-3-0-6--------------------------|
Ab|-7-3-0-x--0-00---5------0---1-----|
Db|-7-3-0-6--0-00-----4~-4---3---3-0-|
             . ..

SECTION 2 (not 100% sure about this part)
Both Guitars
Eb|---------------------------------------------|
Bb|---------------------------------------------|
Gb|-20b-20b-20b-19b----20b-20b-20b-19b----20b---|
Db|--x---x---x---x------x---x---x---x------x----|
Ab|-18b-18b-18b-17b----18b-18b-18b-17b----18b---|
Db|-----------------0------------------0------0-|

NOTE: Just bend the notes enough to make this section sound a little
messy and chaotic.

SECTION 3
Both Guitars (Almost identical to SECTION 1)
Eb|---------------0---------------|
Bb|---------------0---------------|
Gb|---------------0---------------|
Db|-7-3-0-6-----------------------|x4
Ab|-7-3-0-x--0-00---3------6------|
Db|-7-3-0-6--0-00-----4~-4---7~-7-|
             . ..

TRANSITION 1
Guitar 1
Eb|----------|
Bb|----------|
Gb|-------5b-|
Db|-7-3-0-x--|
Ab|-7-3-0-3b-|
Db|-7-3-0----|
||
Guitar 2
Eb|----------|
Bb|----------|
Gb|-------8b-|
Db|-7-3-0-x--|
Ab|-7-3-0-6b-|
Db|-7-3-0----|

SECTION 4
Both Guitars
Eb|----------------------------------------------------------------|
Bb|----------------------------------------------------------------|
Gb|----------------------------------------------------------------|
Db|----------------------------------------------------------------|
Ab|-5----5----000000-5----5----000000-5----5----000000-5-----3---0-|
Db|---6\---6\-000000---6\---6\-000000---6\---6\-000000---6-4---3---|
              ......           ......           ......

Eb|---------------------------------------------------------|
Bb|---------------------------------------------------------|
Gb|---------------------------------------------------------|
Db|---------------------------------------------------------|
Ab|----5---3----0----5---3----0----5---3-----0----5---3-0-0-|
Db|-0----6---4\---0----6---4\---0----6---4\----0----6---0-0-|
                                                        . .

Guitar 1
Eb|--------------------------------------------------------|
Bb|--------------------------------------------------------|
Gb|--------------------------------------------------------|
Db|--------------------------------------------------------|
Ab|----5---3----0----5---3----0----5---3-----0----5---3----|
Db|-0----6---4\---0----6---4\---0----6---4\----0----6---4\-|
||
Guitar 2
Eb|--------------------------------------------------------|
Bb|--------------------------------------------------------|
Gb|--------------------------------------------------------|
Db|--------------------------------------------------------|
Ab|----8---6----0----8---6----0----8---6-----0----8---6----|
Db|-0----9---7\---0----9---7\---0----9---7\----0----9---7\-|

SECTION 5
Both Guitars
Eb|-------------------------------------------------|
Bb|-------------------------------------------------|
Gb|-------------------------------------------------|
Db|-0-----------------------------------------------|
Ab|-0---------------------------------5---3-----0---|
Db|-0---0-0--0--0--0-0--0--0--0-0--0----6---4\----0-|

Extra Guitar (hard to know for sure because of effects)
Eb|-------------------------------------------------|
Bb|-------------------------------------------------|
Gb|--------------------17\--(noise)-----------------|
Db|-------------------------------------------------|
Ab|-/15b17brbrbrbrbrbr------------------------------|
Db|-------------------------------------------------|

Both Guitars
Eb|-----------------------------|
Bb|-----------------------------|
Gb|-----------------------------|
Db|-0---0---0--0-0---0---0--0-0-|
Ab|-0---0---0--0-0---0---0--0-0-|
Db|-0---0---0--0-0---0---0--0-0-|

Extra Guitar
Eb|-------------------------------------------------------------|
Bb|-15----------------------------------------------------------|
Gb|--x-(echo effects)-------------------------------------------|
Db|-12----------------------------------------------------------|
Ab|-------------------------------------------------------------|
Db|-------------------------------------------------------------|

Both Guitars
Eb|--------------------|
Bb|--------------------|
Gb|--------------------|
Db|-0-xxxx-0-xxxx-0-x0-|x6
Ab|-0-xxxx-0-xxxx-0-x0-|
Db|-0-xxxx-0-xxxx-0-x0-|

Extra Guitar (not sure about this, comes in at KC Wolf's vocals)
Eb|-14------------------------------------|
Bb|-15b17---(maybe-tremolo-pick-it-a-bit)-|
Gb|---------------------------------------|
Db|---------------------------------------|
Ab|---------------------------------------|
Db|---------------------------------------|

Throw some more guitar noise and mess with the tuning on the bottom
string for the transition to...

SECTION 6
Both Guitars (Guitar 2 only plays the open notes)
Eb|---------------------------------------|
Bb|---------------------------------------|
Gb|----8b-8b-8b-7b----8b-8b-8b-7b----8b---|
Db|-0--x--x--x--x--0--x--x--x--x--0--x--0-|x3
Ab|-0--6b-6b-6b-5b-0--6b-6b-6b-5b-0--6b-0-|
Db|-0--------------0--------------0-----0-|

Eb|--------------------------|
Bb|--------------------------|
Gb|----8b-8b-8b-7b---11------|
Db|-0--x--x--x--x--0--x(x16)-|
Ab|-0--6b-6b-6b-5b-0--9------|
Db|-0--------------0---------|

REPEAT SECTION 6

SECTION 7
Eb|------------------------|
Bb|------------------------|
Gb|--------5---------------|
Db|-7--3---5-7-6--7-3-xxxx-|
Ab|-7--3---3-7-6--7-3-xxxx-|
Db|-7--3-----7-6--7-3-xxxx-|
 
Eb|------------------------------|
Bb|------------------------------|
Gb|------------------------------|
Db|-0--1-1-1-0-0--1-1-1-0-0--1-0-|x3
Ab|-x--x-x-x-x-x--x-x-x-x-x--x-x-|
Db|-0--1-1-1-0-0--1-1-1-0-0--1-0-|

Eb|------------------|
Bb|------------------|
Gb|------------------|
Db|-0--1-1-1-0-0--1b-|
Ab|-x--x-x-x-x-x--x--|
Db|-0--1-1-1-0-0--1b-|

Eb|----------------------------------|
Bb|----------------------------------|
Gb|--------5-------------------------|
Db|-7--3---5-7-6--7-3----------------|
Ab|-7--3---3-7-6--7-3-(guitar-noise)-|
Db|-7--3-----7-6--7-3----------------|

Not sure if all of the dissonances are completely right, but
this sounds pretty good with my setup. Hope it works for you too.
Please rate & comment.
Thanks,
millarso

************************************

| /   slide up
| \   slide down
| h   hammer-on
| p   pull-off
| ~   vibrato
| <>  harmonic
| x   Mute note
| b   Bend
| pb  Pre-bend
| br  Bend release
| pbr Pre-bend release
| brb Bend release bend

************************************
Добавлено: 29.12.2013
Другие материалы по этой песне:

Страница создана 29.12.2013
http://primanota.ru/norma-jean/if-you-got-it-at-five-you-got-it-at-fifty-chords.htm
Привет, Гость.
Предлагаем пройти революционный курс по гитаре.
Подарок от PrimaNota.Ru, забирай!