PrimaNota.ru - самый крупный в мире бесплатный архив песенных текстов, аккордов, табулатур и нот


Norma Jean - Sword In Mouth Fire Eyes - текст песни, таба, видео

Регистрация Запомнить меня
Войти через:  Facebook Google Twitter Vk Yandex Mail.ru

Norma Jean - Sword In Mouth Fire Eyes - текст песни, таба, видео

Печатать
Просмотров: 409
-----------------------------------------------
  Sword In Mouth, Fire Eyes - Norma Jean
------------------------------------------
Tabbed by: millarso (Jake Miller)
E-mail: millarso2.0@gmail.com

Tuning: Drop B (new for Norma Jean!)

To start this song, it might seem strange, but I think the intro might be a
ridiculously down-tuned guitar. The open note is actually an F# which is a
whole step higher than the natural low E for the bass. So, to play this
either downtune your bottom string all the way to F# for a bit, or capo a
bass at the second fret. Even though the strings of the guitar are crazy
loose at an F#, this actually makes it sound like the recording because it is
kind of messy and pitchy. Here goes...

INTRO
C#|--------------------|
G#|--------------------|
E |--------------------|
B |--------------------|x4
F#|--------------------|
F#|-12p0-0-12p0-0-12p0-|

C#|-----------------------------------------------------------------------------|
G#|-----------------------------------------------------------------------------|
E |-----------------------------------------------------------------------------|
B |-----------------------------------------------------------------------------|
F#|-----------------------------------------------------------------------------|
F#|-12p0-0-12p0-0-12p0-11p0-0-11p0-0-11p0-14p0-0-14p0-0-14p0-15p0-0-15p0-0-15p0-|

C#|-----------------------------------------------------------------|
G#|-----------------------------------------------------------------|
E |-----------------------------------------------------------------|
B |-----------------------------------------------------------------|
F#|-----------------------------------------------------------------|
F#|-8p0-0-8p0-0-8p0-7p0-0-7p0-0-7p0-5p0-7p0-5p0-7p0-5p0-0-3p0-0-3p0-|

C#|-----------------------------------------------------------------------------|
G#|-----------------------------------------------------------------------------|
E |-----------------------------------------------------------------------------|
B |-----------------------------------------------------------------------------|
F#|-----------------------------------------------------------------------------|
F#|-2p0-3p0-2p0-3p0-3p0-0-0--0h3p0-3p0-0-0--0h3p0-3p0-0-0--0h3p0-3p0-0-0--0h3p0-|

C#|-----------------------------------------------------------------------------|
G#|-----------------------------------------------------------------------------|
E |-----------------------------------------------------------------------------|
B |-----------------------------------------------------------------------------|
F#|-----------------------------------------------------------------------------|
F#|-12p0-0-12p0-0-12p0-11p0-0-11p0-0-11p0-14p0-0-14p0-0-14p0-15p0-0-15p0-0-15p0-|

C#|-----------------------------------------------------------------|
G#|-----------------------------------------------------------------|
E |-----------------------------------------------------------------|
B |-----------------------------------------------------------------|
F#|-----------------------------------------------------------------|
F#|-8p0-0-8p0-0-8p0-7p0-0-7p0-0-7p0-5p0-7p0-5p0-7p0-5p0-0-3p0-0-3p0-|

C#|-----------------------------------------------------------------------------------------|
G#|-----------------------------------------------------------------------------------------|
E |-----------------------------------------------------------------------------------------|
B |-----------------------------------------------------------------------------------------|
F#|-----------------------------------------------------------------------------------------|
F#|-2p0-3p0-2p0-3p0-3p0-0-0--0h3p0-3p0-0-0--0h3p0-3p0-0-0--0h3p0-3p0-0-0--0h3p0-3p0--0--0-0-|

Now onto the actual song...
Guitar 1 (Left Channel)
Guitar 2 (Right Channel)

SECTION 1
Both Guitars
C#|-----------------------------------------------------|
G#|-----------------------------------------------------|
E |-----------------------------------------------------|
B |-----------------------------------------------------|
F#|-----------------------------------------------------|
B |-7777770-7-0-7777770-7-0-7777770-7-0-3333330-3-0-3-0-|

Guitar 1
C#|-----------------------------------------------------------------|
G#|-----------------------------------------------------------------|
E |-----------------------------------------------------------------|
B |-----------------------------------------------------0-(let-ring)|
F#|-------------------------3333330-3-0-7777770-7-0-7-0-------------|
B |-7777770-7-0-7777770-7-0-----------------------------------------|

Guitar 2
C#|------------------------------------------------------------------|
G#|------------------------------------------------------------------|
E |------------------------------------------------------------------|
B |------------------------------------------------------------------|
F#|-----------------------------------------------------0-(let-ring)-|
B |-7777770-7-0-7777770-7-0-7777770-7-0-3333330-3-0-3-0--------------|

SECTION 2
Guitar 1 (Clean)
C#|----------------------3-0---------3----|
G#|------------------1-----------1-----0--|
E |---------------/2---2--2---/2---2--2---|
B |-(0)-----------------------------------|
F#|---------------------------------------|
B |---------------------------------------|

Guitar 2
C#|---------------------------------------|
G#|---------------------------------------|
E |---------------------------------------|
B |-----------/9-/10----------\3-----/12~-|
F#|-(0)-----------------------------------|
B |---------------------------------------|

Guitar 1 (Clean)
C#|----------3---0-------------------3---------------|
G#|-----1-----------------------1--------0-----------|
E |-/2-----2---2------------/2-----2---2-------------|
B |--------------------------------------------------|
F#|--------------------------------------------------|
B |--------------------------------------------------|

Guitar 2
C#|--------------------------------------------------|
G#|--------------------------------------------------|
E |--------------------------------------------------|
B |--------------------------------------------------|
F#|--------------------------------------------------|
B |--7777770-7-0-7777770-7-0-7777770-7-0-7777770-7-0-|
     ....... . . ....... . . ....... . . ....... . .

Guitar 1 (Clean)
C#|----------3---0-------------------3---1-----------|
G#|-----1-----------------------1--------------------|
E |-/2-----2---2------------/2-----2---2-------------|
B |--------------------------------------------------|
F#|--------------------------------------------------|
B |--------------------------------------------------|

Guitar 2 (10's and 12's in the bar below, with the same rhythm)
C#|-----------------------------------------------------------------------|
G#|-----------------------------------------------------------------------|
E |-----------------------------------------------------------------------|
B |-----------------------------------------------------------------------|
F#|-----------------------------------------------------------------------|
B |--1010101010100-10-0-1010101010100-10-0-3333330-3-0-1212121212120-12-0-|
      . . . . . ..  . .  . . . . . ..  . . ....... . .  . . . . . ..  . .

SECTION 3
Guitar 1
C#|---------------------------------------------------|
G#|---------------------------------------------------|
E |---------------------------------------------------|
B |-7--7\-------7--7\-------7--7\-------7--7--10-10-0-|
F#|-7--7\-------7--7\-------7--7\-------7--7--10-10-0-|
B |-7--7\-------7--7\-------7--7\-------7--7--10-10-0-|

Guitar 2
C#|---------------------------------------------------|
G#|-------8-----------8-----------8-------------------|
E |---------7h9---------7h9---------7h9-------9b10r9--|
B |-7--7--------7--7--------7--7--------7--7----------|
F#|-7--7--------7--7--------7--7--------7--7----------|
B |-7--7--------7--7--------7--7--------7--7----------|

Both Guitars
C#|-------------------------------------------------|
G#|-------------------------------------6--6--6-6---|
E |-------------------------------------7--7--7-7---|
B |-3--3--0-3-0-3--3--0-3-0-3--3--0-3-0-7--7--7-7---|
F#|-3--3--0-3-0-3--3--0-3-0-3--3--0-3-0-5--5--5-5---|
B |-3--3--0-3-0-3--3--0-3-0-3--3--0-3-0-----------0-|

REPEAT SECTION 3

REPEAT SECTION 1

SECTION 4 (similar to SECTION 2)
Guitar 1
C#|----------3---0-------------------3---------------|
G#|-----1-----------------------1--------0-----------|
E |-/2-----2---2------------/2-----2---2-------------|
B |--------------------------------------------------|
F#|--------------------------------------------------|
B |--------------------------------------------------|

Guitar 2
C#|--------------------------------------------------|
G#|--------------------------------------------------|
E |--------------------------------------------------|
B |--------------------------------------------------|
F#|--------------------------------------------------|
B |--7777770-7-0-7777770-7-0-7777770-7-0-7777770-7-0-|
     ....... . . ....... . . ....... . . ....... . .

Guitar 1 (Clean)
C#|----------3---0-------------------3---1-----------|
G#|-----1-----------------------1--------------------|
E |-/2-----2---2------------/2-----2---2-------------|
B |--------------------------------------------------|
F#|--------------------------------------------------|
B |--------------------------------------------------|

Guitar 2 (10's and 12's in the bar below, with the same rhythm)
C#|-----------------------------------------------------------------------|
G#|-----------------------------------------------------------------------|
E |-----------------------------------------------------------------------|
B |-----------------------------------------------------------------------|
F#|-----------------------------------------------------------------------|
B |--1010101010100-10-0-1010101010100-10-0-3333330-3-0-1212121212120-12-0-|
      . . . . . ..  . .  . . . . . ..  . . ....... . .  . . . . . ..  . .

Both Guitars (Same as Guitar 2 above)
C#|--------------------------------------------------|
G#|--------------------------------------------------|
E |--------------------------------------------------|
B |--------------------------------------------------|
F#|--------------------------------------------------|
B |--7777770-7-0-7777770-7-0-7777770-7-0-7777770-7-0-|
     ....... . . ....... . . ....... . . ....... . .

C#|--------------------------------------------------------------------------|
G#|--------------------------------------------------------------------------|
E |--------------------------------------------------------------------------|
B |--------------------------------------------------------------------------|
F#|--------------------------------------------------------------------------|
B |--1010101010100-10-0-1010101010100-10-0-3333330-3-0-1212121212120-12-0-12-|
      . . . . . ..  . .  . . . . . ..  . . ....... . .  . . . . . ..  . .

REPEAT SECTION 3

SECTION 5
Guitar 1
C#|-------------------------3--3--3-3---3--3--3-3---|
G#|-------------------------1--1--1-1---1--1--1-1---|
E |-------2-0h2-------------2--2--2-2---2--2--2-2---|
B |-3--3--------0--0--0h2---2--2--2-2---2--2--2-2---|x2
F#|-3--3--------0--0------3-0--0--0-0---0--0--0-0---|
B |-3--3--------0--0--------------------------------|
||
Guitar 2
C#|-------------------------3--3--3-3---3--3--3-3---|
G#|-------------------0h1---1--1--1-1---1--1--1-1---|
E |-------0---------------2-2--2--2-2---2--2--2-2---|
B |-3--3----0h2-0--0--------2--2--2-2---2--2--2-2---|x2
F#|-3--3--------0--0--------0--0--0-0---0--0--0-0---|
B |-3--3--------0--0--------------------------------|
||
Extra Guitar
C#|------------------------------------------------------|
G#|------------------------------------------------------|
E |-14-14-141414\12-12-12-121212/17-17-1717--17-17-1717\-|
B |--x--x--x-x-x--x--x--x--x-x-x--x--x--x-x---x--x--x-x--|x2
F#|-12-12-121212\10-10-10-101010/15-15-1515--15-15-1515\-|
B |------------------------------------------------------|

Guitar 1
C#|----------------------------------3---0------------------------------------|
G#|-----------------------------1---------------------------------------------|
E |-------2-0h2-------------/2-----2---2--------------------------------------|
B |-3--3--------0--0--0h2-----------------------------3--3--3-3-3-0-0-0-0-0-2-|
F#|-3--3--------0--0------3---------------------------3--3--3-3-3-0-0-0-0-0-2-|
B |-3--3--------0--0----------------------------------3--3--3-3-3-0-0-0-0-0-2-|
||                                                                . . . .
Guitar 2
C#|---------------------------------------------------------------------------|
G#|-------------------0h1-----------------------------------------------------|
E |-------0---------------2---------------------------------------------------|
B |-3--3----0h2-0--0--------7--7--7-7-7--5--5--5-5-5--3--3--3-3-3-0-0-0-0-0-2-|
F#|-3--3--------0--0--------7--7--7-7-7--5--5--5-5-5--3--3--3-3-3-0-0-0-0-0-2-|
B |-3--3--------0--0--------7--7--7-7-7--5--5--5-5-5--3--3--3-3-3-0-0-0-0-0-2-|
||                                                                . . . .
Extra Guitar
C#|----------------------------------------------------------------------------------------|
G#|----------------------------------------------------------------------------------------|
E |-17-17-1717/19-17\16-16-161616-16/19-19-191919-19\16-16-161616-17-17-171717101010101010-|
B |--x--x--x-x--x--x--x--x--x-x-x-x---x--x--x-x-x--x--x--x--x-x-x--x--x--x-x-x-x-x-x-x-x-x-|
F#|-15-15-1515/17-15\14-14-141414-14/17-17-171717-17\14-14-141414-15-15-151515-8-8-8-8-8-8-|
B |----------------------------------------------------------------------------------------|

SECTION 6
Both Guitars
C#|----------------------------------------------------|
G#|----------------------------------------------------|
E |----------------------------------------------------|
B |-7--7\--0-7---7--7\--0-7---7--7\--0-7---3--3--0-3-0-|x2
F#|-7--7\--0-7---7--7\--0-7---7--7\--0-7---3--3--0-3-0-|
B |-7--7\--0-7---7--7\--0-7---7--7\--0-7---3--3--0-3-0-|
           .            .            .
SECTION 7
Guitar 1
C#|------------------------------------------------------------------------|
G#|-5/8-------------------------------5/8----------------------------------|
E |-----7-5/7-5---------------------------7-5/7-5--------------------------|
B |-------------7/10-9--7~------------------------7/10-9b------------------|
F#|------------------------------------------------------------8~----------|
B |------------------------------------------------------------------------|
||
Guitar 2
C#|------------------------------------------------------------------------|
G#|------------------5/8-------------------------------5/8-----------------|
E |----------------------7-5/7-5---------------------------7-5/7-5---------|
B |------------------------------7/10-7b---------------------------7/10-9b-|
F#|------------------------------------------------------------------------|
B |------------------------------------------------------------------------|

Guitar 1
C#|-------------------------------------------------------------------------|
G#|-5/8--------------------------------5/8----------------------------------|
E |-----7-5/7-5----------------------------7-5/7-5--------------------------|
B |-------------7/10-7b----------------------------7/10-9b---------------7--|
F#|-------------------------------------------------------------8~-------7b-|
B |-------------------------------------------------------------------------|
||
Guitar 2
C#|-------------------------------------------------------------------------|
G#|------------------5/8--------------------------------5/8-----------------|
E |----------------------7-5/7-9----------------------------7-5/7-5---------|
B |------------------------------7/10-------------------------------7/10-7~-|
F#|-----------------------------------12\10~--------------------------------|
B |-------------------------------------------------------------------------|

NOTE: Make all the bends slow in SECTION 7 and allow the 
notes to sputter out and cause feedback.

Transition
Guitar 1
C#|------------------------------|
G#|------------------------------|
E |------------------------------|
B |-(7~)-x-x-x-x-x-x-x-x-x-x-x-x-|
F#|------x-x-x-x-x-x-x-x-x-x-x-x-|
B |------x-x-x-x-x-x-x-x-x-x-x-x-|

SECTION 8 - OUTRO
Both Guitars
C#|-------------------------------------------------|
G#|-------------------------------------6--6--6-6---|
E |-------------------------------------7--7--7-7---|
B |-3--3--0-3-0-3--3--0-3-0-3--3--0-3-0-7--7--7-7---|
F#|-3--3--0-3-0-3--3--0-3-0-3--3--0-3-0-5--5--5-5---|
B |-3--3--0-3-0-3--3--0-3-0-3--3--0-3-0-----------0-|

C#|-------------------------------------------------------------|
G#|-------------------------------------------------------------|
E |-------------------------------------------------------------|
B |-7---7\----7---7\----7---7\----7--7--10--10--0--3------------|
F#|-7---7\----7---7\----7---7\----7--7--10--10--0--3-(let-ring)-|
B |-7---7\----7---7\----7---7\----7--7--10--10--0--3------------|

Awesome song to jam around to. Hope you have fun playing it.
More of this album will be coming soon.
Please rate & comment.
Thanks,
millarso

************************************

| /   slide up
| \   slide down
| h   hammer-on
| p   pull-off
| ~   vibrato
| +   harmonic
| x   Mute note
| b   Bend
| pb  Pre-bend
| br  Bend release
| pbr Pre-bend release
| brb Bend release bend

************************************
Добавлено: 13.09.2013
Другие материалы по этой песне:
  • Аккорды и текст

Страница создана 13.09.2013
http://primanota.ru/norma-jean/sword-in-mouth-fire-eyes-chords.htm
Привет, Гость.
Предлагаем пройти революционный курс по гитаре.
Подарок от PrimaNota.Ru, забирай!