PrimaNota.ru - самый крупный в мире бесплатный архив песенных текстов, аккордов, табулатур и нот


Norma Jean - Charactarantula Talking To You And The Intake Of Glass - таба, бас-таба, видео

Регистрация Запомнить меня
Войти через:  Facebook Google Twitter Vk Yandex Mail.ru

Norma Jean - Charactarantula Talking To You And The Intake Of Glass - таба, бас-таба, видео

Печатать
Просмотров: 84
As recorded by Norma Jean
(From the 2005 Album O' GOD THE AFTERMATH)

Transcribed by David Ecker
	

Words and Music by Norma Jean
Arranged by Norma Jean

Gtr I (C# G# C# F# A# B) - 'SCOTTIE!!'
Gtr II (C# G# C# F# A# B) - 'CHRIS!!!'
Gtr III (C# G# C# F# A# B) - 'scottie breakdown'
Gtr IV (C# G# C# F# A# B) - 'chris breakdown'

 I Will...
  Q=144
  N.C.
 2/4    5/4                         7/4
  Gtrs I, II
  H      Q.    S S E S S Q.    S S   Q.    S S E S S E S S E S S Q.    S S
|------|---------------------------|-----------------------------------------|
|------|---------------------------|-----------------------------------------|
|------|---------------------------|-----------------------------------------|
|------|---------------------------|-----------------------------------------|
|------|---------------------------|-----------------------------------------|
|------|-2b3---0-0-3-0-0-2b3---0-0-|-2b3---0-0-3-0-0-2-0-0-3-0-0-2b3---0-0---|


 5/4                         7/4                                   2/4
  Q.    S S E S S Q.    S S   Q.    S S E S S E S S E S S Q.    E   H
|---------------------------|-------------------------------------|------|
|---------------------------|-------------------------------------|------|
|---------------------------|-------------------------------------|------|
|---------------------------|-------------------------------------|------|
|---------------------------|-------------------------------------|------|
|-2b3---0-0-3-0-0-2b3---0-0-|-2b3---0-0-3-0-0-2-0-0-3-0-0-2b3---0-|-0----|


 Verse
 5/4                             7/4
  Gtr I
  Q.      S S E S S Q.      S S   Q.      S S E S S E S S E S S Q.      S S
|-------------------------------|--------------------------------------------|
|-------------------------------|--------------------------------------------|
|-------------------------------|--------------------------------------------|
|-------------------------------|--------------------------------------------|
|-------------------------------|--------------------------------------------|
|-2b3-----0-0-3-0-0-2b3-----0-0-|-2b3-----0-0-3-0-0-2-0-0-3-0-0-2b3-----0-0--|
|
| Gtr II
| E   E E E   E E   E   E E S S   E   E E E   E E   E E   E E   E   E Q
|-0---6-8-0---4-6---0---6-8-0-0-|-0---6-8-0---4-6---0-6---8-0---4---6-6------|
|-0---6-8-0---4-8---0---6-8-0-0-|-0---6-8-0---4-8---0-6---8-0---4---6-6------|
|-------------------------------|--------------------------------------------|
|-------------------------------|--------------------------------------------|
|-------------------------------|--------------------------------------------|
|-------------------------------|--------------------------------------------|


 5/4
  Q.      S S E S S Q.      S S
|-------------------------------|
|-------------------------------|
|-------------------------------|
|-------------------------------|
|-------------------------------|
|-2b3-----0-0-3-0-0-2b3-----0-0-|
|
| E   E E E   E E   E   E E S S
|-0---6-8-0---4-6---0---6-8-0-0-|
|-0---6-8-0---4-8---0---6-8-0-0-|
|-------------------------------|
|-------------------------------|
|-------------------------------|
|-------------------------------|


 7/4                                       2/4
  Q.      S S E S S E S S E S S Q.      E   H
|-----------------------------------------|------|
|-----------------------------------------|------|
|-----------------------------------------|------|
|-----------------------------------------|------|
|-----------------------------------------|------|
|-2b3-----0-0-3-0-0-2-0-0-3-0-0-2b3-----0-|-0----|
|
| E   E E E   E E   E E   E E   E   E Q     H
|-0---6-8-0---4-6---0-6---8-0---4---6-6---|------|
|-0---6-8-0---4-8---0-6---8-0---4---6-6---|------|
|-----------------------------------------|------|
|-----------------------------------------|------|
|-----------------------------------------|------|
|-----------------------------------------|-0----|


 Thug'n the bass
 5/4                 7/4
  Gtrs I, II
  >
  W          +Q       +W           +H.
|-------------------|-----------------------|
|-------------------|-----------------------|
|-------------------|-----------------------|
|-------------------|-----------------------|
|-------------------|-----------------------|
|-2b3--------(2)b3--|-(2)b3--------(2)b3----|


                                                  D5
 5/4                   7/4                       2/4
  +W           +Q       +W           +H.          H
|---------------------|-------------------------|------|
|---------------------|-------------------------|------|
|---------------------|-------------------------|------|
|---------------------|-------------------------|-0----|
|---------------------|-------------------------|-0----|
|-(2)b3--------(2)b3--|-(2)b3--------(2)b3------|-0----|


 Intro Again
  N.C.
 5/4                         7/4
  Gtrs I, II
  Q.    S S E S S Q.    S S   Q.    S S E S S E S S E S S Q.    S S
|---------------------------|----------------------------------------|
|---------------------------|----------------------------------------|
|---------------------------|----------------------------------------|
|---------------------------|----------------------------------------|
|---------------------------|----------------------------------------|
|-2b3---0-0-3-0-0-2b3---0-0-|-2b3---0-0-3-0-0-2-0-0-3-0-0-2b3---0-0--|


 5/4                         7/4                                   2/4
  Q.    S S E S S Q.    S S   Q.    S S E S S E S S E S S Q.    E   H
|---------------------------|-------------------------------------|------|
|---------------------------|-------------------------------------|------|
|---------------------------|-------------------------------------|------|
|---------------------------|-------------------------------------|------|
|---------------------------|-------------------------------------|------|
|-2b3---0-0-3-0-0-2b3---0-0-|-2b3---0-0-3-0-0-2-0-0-3-0-0-2b3---0-|-0----|


   Everybody Dance
   4/4
    Gtrs I, II
    E. E. S S E S S E S S   E. E. S S E S S E S S
||------------------------|------------------------||
||o-----------------------|-----------------------o||
||------------------------|------------------------||
||------------------------|------------------------||
||o-----------------------|-----------------------o||
||--2--2--0-0-2-0-0-2-0-0-|-2--2--0-0-2-0-0-2-0-0--||


  Gtr I
  E. E. S S S S E Q    E. E. S S S S E Q    E. E. S S E S S S S S S
|--------------------|--------------------|-------------------------|
|--------------------|--------------------|-------------------------|
|--------------------|--------------------|-------------------------|
|--------------------|--------------------|-------------------------|
|--------------------|--------------------|-------------------------|
|-0--0--0-0-0-0---0--|-0--0--0-0-0-0---0--|-5--5--0-0-5-0-0-5-5-5-5-|
|
| Gtr II
| E. E. E   S S E Q    E. E. E   S S E Q    E. E. S S E S S E   S S
|--------------------|--------------------|-------------------------|
|--------------------|--------------------|-------------------------|
|--------------------|--------------------|-------------------------|
|--------------------|--------------------|-------------------------|
|--------------------|--------------------|-------------------------|
|-0--0--0---0-0---0--|-0--0--0---0-0---0--|-5--5--0-0-5-0-0-5---0-0-|


  E. E. S S E S S S S S S   E. E. S S E S S S S S S   E. E. S S E S S S S S S
|-------------------------|-------------------------|-------------------------|
|-------------------------|-------------------------|-------------------------|
|-------------------------|-------------------------|-------------------------|
|-------------------------|-------------------------|-------------------------|
|-------------------------|-------------------------|-------------------------|
|-8--8--0-0-8-0-0-8-8-8-8-|-8--8--0-0-8-0-0-8-8-8-8-|-8--8--0-0-8-0-0-8-8-8-8-|
|
| E. E. S S E S S E   S S   E. E. S S E S S E   S S   E. E. S S E S S E   S S
|-------------------------|-------------------------|-------------------------|
|-------------------------|-------------------------|-------------------------|
|-------------------------|-------------------------|-------------------------|
|-------------------------|-------------------------|-------------------------|
|-------------------------|-------------------------|-5--5------5-----5-------|
|-5--5--0-0-5-0-0-5---0-0-|-8--8--0-0-8-0-0-8---0-0-|-------0-0---0-0-----0-0-|


 Octavious Maximus
  D5/D5    D5/D#5D5b   D5/D#5D5/A D5    D5/D#5D5/D#5D5b
 4/4                             3/4
  Gtr I
   W                               H              E  E
|-------------------------------|-------------------------|
|-------------------------------|-------------------------|
|-------------------------------|-------------------------|
|-------------------------------|-----------------3-------|
|-------------------------------|-----------------1-------|
|-------------------------------|-------------------------|
|
| Gtr II
|     PM|         PM|              PM|               PM|
|  E  S  S  E  E  S  S  E  E  E    S  S  E  E  E  E  S  S
|-------------------------------|-------------------------|
|-------------------------------|-------------------------|
|-14-------14-15-------14-15-14-|-------14-15-14-15-------|
|-12-------12-13-------12-13-12-|-------12-13-12-13-------|
|-12-12-12-12-13-12-12-12-13-12-|-12-12-12-13-12-13-12-12-|
|----12-12-------12-12----------|-12-12-------------12-12-|


    A5 D5    A5 D#5D5    A5 F5 D5   D5    A5 F5 D5 Bb5D5
   4/4                             3/4
     E  E     E  E  E     E  E  E    E     E  E  E  E  E     3x
||--------------------------------|--------------------------||
||o-------------------------------|-------------------------o||
||--------------------------------|--------------------------||
||---2--------2-----------2-------|--------2--------3--------||
||o--0--------0--1--------0--3--0-|--------0--3--0--1-------o||
||---------------1-----------3--0-|-----------3--0-----------||
|
|       PM|         PM|              PM|               PM|
|    E  S  S  E  E  S  S  E  E  E    S  S  E  E  E  E  S  S  3x
||--------------------------------|--------------------------||
||o-------------------------------|-------------------------o||
||--14-------14-15-------14-15-14-|-------14-15-14-15--------||
||--12-------12-13-------12-13-12-|-------12-13-12-13--------||
||o-12-12-12-12-13-12-12-12-13-12-|-12-12-12-13-12-13-12-12-o||
||-----12-12-------12-12----------|-12-12-------------12-12--||


  A5 D5    A5 D#5D5    A5 F5 D5   D5    A5 F5 D5 Bb5
 4/4                             3/4
   E  E     E  E  E     E  E  E    E     E  E  E  E E
|-------------------------------|---------------------|
|-------------------------------|---------------------|
|-------------------------------|---------------------|
|--2--------2-----------2-------|--------2--------3---|
|--0--------0--1--------0--3--0-|--------0--3--0--1---|
|--------------1-----------3--0-|-----------3--0------|
|
|     PM|      PM    PM            PM|
|  E  S  S  E  E  S  S  E  E  E    S  S  E  E  E  E E
|-------------------------------|---------------------|
|-------------------------------|---------------------|
|-14-------14-15-------14-15-14-|-------14-15-14-15---|
|-12-------12-13-------12-13-12-|-------12-13-12-13---|
|-12-12-12-12-13-12-12-12-13-12-|-12-12-12-13-12-13---|
|----12-12-------12-12----------|-12-12---------------|


 Nigga Whaaatt
  D5
 4/4               3/4           4/4               3/4
  Gtrs I, II
  E E E E E E E E   E E E E E E   E E E E E E E E   E E E E E E
|-----------------|-------------|-----------------|--------------|
|-----------------|-------------|-----------------|--------------|
|-----------------|-------------|-----------------|--------------|
|-0---0-0---0-0-0-|---0-0-0-0---|-0---0-0---0-0-0-|---0-0-0-0----|
|-0---0-0---0-0-0-|---0-0-0-0---|-0---0-0---0-0-0-|---0-0-0-0----|
|-0---0-0---0-0-0-|---0-0-0-0---|-0---0-0---0-0-0-|---0-0-0-0----|


 4/4               3/4           4/4
  E E E E E E E E   E E E E E E   E E E E E E E E   E E E E H
|-----------------|-------------|-----------------|--------------|
|-----------------|-------------|-----------------|--------------|
|-----------------|-------------|-----------------|--------------|
|-0---0-0---0-0-0-|---0-0-0-0---|-0---0-0---0-0-0-|---0-0-0-0----|
|-0---0-0---0-0-0-|---0-0-0-0---|-0---0-0---0-0-0-|---0-0-0-0----|
|-0---0-0---0-0-0-|---0-0-0-0---|-0---0-0---0-0-0-|---0-0-0-0----|


   Octavious Maximus II
    D5     D#5 D5 D#5D5           D#5D5 D5
    Gtr I
     Q   E  Q   E  E  E    +E   E  E  E H
||----------------------|--------------------|
||o---------------------|--------------------|
||--14--14-15--14-15-14-|-(14)-14-15-14------|
||---x---x--x---x--x--x-|--(x)--x--x--x-0----|
||o-12--12-13--12-13-12-|-(12)-12-13-12-0----|
||----------------------|---------------0----|
|
|   Gtr II
|    Q   E  Q   E  E  E    +E   E  E  E H
||----------------------|--------------------|
||o---------------------|--------------------|
||--14--14-15--14-15-14-|-(14)-14-15-14------|
||--12--12-13--12-13-12-|-(12)-12-13-12-0----|
||o-12--12-13--12-13-12-|-(12)-12-13-12-0----|
||--12--12-13--12-13-12-|-(12)-12-13-12-0----|


  D5     D#5 D5 D#5D5           D#5D5 D5
   Q   E  Q   E  E  E    +E   E  E  E H
|---------------------|---------------------||
|---------------------|--------------------o||
|-14--14-15--14-15-14-|-(14)-14-15-14-------||
|--x---x--x---x--x--x-|--(x)--x--x--x-0-----||
|-12--12-13--12-13-12-|-(12)-12-13-12-0----o||
|---------------------|---------------0-----||
|
|  Q   E  Q   E  E  E    +E   E  E  E H
|---------------------|---------------------||
|---------------------|--------------------o||
|-14--14-15--14-15-14-|-(14)-14-15-14-------||
|-12--12-13--12-13-12-|-(12)-12-13-12-0-----||
|-12--12-13--12-13-12-|-(12)-12-13-12-0----o||
|-12--12-13--12-13-12-|-(12)-12-13-12-0-----||


 Another Intro!
  N.C.
 5/4                         7/4
  Gtrs I, II
  Q.    S S E S S Q.    S S   Q.    S S E S S E S S E S S Q.    S S
|---------------------------|----------------------------------------|
|---------------------------|----------------------------------------|
|---------------------------|----------------------------------------|
|---------------------------|----------------------------------------|
|---------------------------|----------------------------------------|
|-2b3---0-0-3-0-0-2b3---0-0-|-2b3---0-0-3-0-0-2-0-0-3-0-0-2b3---0-0--|


                                                                    D5
 5/4                         7/4                                   2/4
  Q.    S S E S S Q.    S S   Q.    S S E S S E S S E S S Q.    E   H
|---------------------------|-------------------------------------|------|
|---------------------------|-------------------------------------|------|
|---------------------------|-------------------------------------|------|
|---------------------------|-------------------------------------|------|
|---------------------------|-------------------------------------|-0----|
|-2b3---0-0-3-0-0-2b3---0-0-|-2b3---0-0-3-0-0-2-0-0-3-0-0-2b3---0-|-0----|


   Repizzle
    N.C.
   4/4
    Gtrs I, II
    E. E. S S E S S E S S   E. E. S S E S S E S S
||------------------------|------------------------||
||o-----------------------|-----------------------o||
||------------------------|------------------------||
||------------------------|------------------------||
||o-----------------------|-----------------------o||
||--2--2--0-0-2-0-0-2-0-0-|-2--2--0-0-2-0-0-2-0-0--||


    Gtr I
    E. E. S S S S E Q    E. E. S S S S E Q
||---------------------|---------------------||
||o--------------------|--------------------o||
||---------------------|---------------------||
||---------------------|---------------------||
||o--------------------|--------------------o||
||--0--0--0-0-0-0---0--|-0--0--0-0-0-0---0---||
|
|   Gtr II
|   E. E. E   S S E Q    E. E. E   S S E Q
||---------------------|---------------------||
||o--------------------|--------------------o||
||---------------------|---------------------||
||---------------------|---------------------||
||o--------------------|--------------------o||
||--0--0--0---0-0---0--|-0--0--0---0-0---0---||


   E.    E.    S S  E S S  E  S S   E.    E.    S S  E  S S E  S S
|---------------------------------|--------------------------------|
|---------------------------------|--------------------------------|
|---------------------------------|--------------------------------|
|---------------------------------|--------------------------------|
|---------------------------------|--------------------------------|
|--2-----2-----0-0--2-0-0--2--0-0-|-2-----2-----0-0--2--0-0-2--0-0-|
|
|  E   E    E  E    E E    E  E     E   E     E E    E  E   E  E
|-12--12------12---11-----12-12---|----12----11-----12-12-----12---|
|-12--12------12---11-----12-12---|----12----11-----12-12-----12---|
|---------------------------------|--------------------------------|
|---------------------------------|--------------------------------|
|---------------------------------|--------------------------------|
|---------------------------------|--------------------------------|


   E.   E.     S S E  S S  E S S    E.    E.    S S  E S S  E  S S
|--------------------------------|---------------------------------|
|--------------------------------|---------------------------------|
|--------------------------------|---------------------------------|
|--------------------------------|---------------------------------|
|--------------------------------|---------------------------------|
|--2----2------0-0-2--0-0--2-0-0-|--2-----2-----0-0--2-0-0--2--0-0-|
|
|  E  E     E  E   E  E    E E      E   E    E  E    E E    E  E
|-11-------12-12-----12---11-----|-12--12------12---11-----12-12---|
|-11-------12-12-----12---11-----|-12--12------12---11-----12-12---|
|--------------------------------|---------------------------------|
|--------------------------------|---------------------------------|
|--------------------------------|---------------------------------|
|--------------------------------|---------------------------------|


  E.    E.    S S  S S  E Q
|------------------------------|
|------------------------------|
|------------------------------|
|------------------------------|
|------------------------------|
|-0-----0-----0-0--0-0----0----|
|
| E   E     E E    E    E E  E
|----12----11-----12---12---12-|
|----12----11-----12---12---12-|
|------------------------------|
|------------------------------|
|------------------------------|
|------------------------------|


   E.   E.     S S S S  E  Q     E. E. S S E S S S S S S
|------------------------------|-------------------------|
|------------------------------|-------------------------|
|------------------------------|-------------------------|
|------------------------------|-------------------------|
|------------------------------|-------------------------|
|--0----0------0-0-0-0-----0---|-5--5--0-0-5-0-0-5-5-5-5-|
|
|  E  E     E  E   E    E  E E   E. E. S S E S S E   S S
|-11-------12-12-------12-11---|-------------------------|
|-11-------12-12-------12-11---|-------------------------|
|------------------------------|-------------------------|
|------------------------------|-------------------------|
|------------------------------|-------------------------|
|------------------------------|-5--5--0-0-5-0-0-5---0-0-|


  E. E. S S E S S S S S S   E. E. S S E S S S S S S
|-------------------------|-------------------------|
|-------------------------|-------------------------|
|-------------------------|-------------------------|
|-------------------------|-------------------------|
|-------------------------|-------------------------|
|-8--8--0-0-8-0-0-8-8-8-8-|-8--8--0-0-8-0-0-8-8-8-8-|
|
| E. E. S S E S S E   S S   E. E. S S E S S E   S S
|-------------------------|-------------------------|
|-------------------------|-------------------------|
|-------------------------|-------------------------|
|-------------------------|-------------------------|
|-------------------------|-------------------------|
|-5--5--0-0-5-0-0-5---0-0-|-8--8--0-0-8-0-0-8---0-0-|


  E. E. S S E S S S S S S   E. E. S S E E Q
|-------------------------|-------------------|
|-------------------------|-------------------|
|-------------------------|-------------------|
|-------------------------|-------------------|
|-------------------------|-5--5------5-5-5---|
|-8--8--0-0-8-0-0-8-8-8-8-|-------0-0---------|
|
| E. E. S S E S S E   S S   E. E. S S E E Q
|-------------------------|-------------------|
|-------------------------|-------------------|
|-------------------------|-------------------|
|-------------------------|-------------------|
|-5--5------5-----5-------|-5--5------5-5-5\--|
|-------0-0---0-0-----0-0-|-------0-0---------|


 Throwdown
  D5
 4/4               3/4           4/4
  Gtrs I, II
  E E E E E E E E   E E E E E E   E E E E E E E E   E E E E E E E E
|-----------------|-------------|-----------------|-----------------|
|-----------------|-------------|-----------------|-----------------|
|-----------------|-------------|-----------------|-----------------|
|-0---0-0---0-0-0-|---0-0-0-0---|-0---0-0---0-0-0-|---0-0-0-0---0---|
|-0---0-0---0-0-0-|---0-0-0-0---|-0---0-0---0-0-0-|---0-0-0-0---0---|
|-0---0-0---0-0-0-|---0-0-0-0---|-0---0-0---0-0-0-|---0-0-0-0---0---|


                                                                      N.C.
                   3/4           4/4                                 2/4
  Gtr I
  E E E E E E E E   E E E E E E   E E E E E E E E   E E E E E E E E    H
|-----------------|-------------|-----------------|-----------------|--------|
|-----------------|-------------|-----------------|-----------------|--------|
|-----------------|-------------|-----------------|-----------------|--------|
|-0---0-0---0-0-0-|---0-0-0-0---|-0---0-0---0-0-0-|---0-0-0-0---0---|--------|
|-0---0-0---0-0-0-|---0-0-0-0---|-0---0-0---0-0-0-|---0-0-0-0---0---|--------|
|-0---0-0---0-0-0-|---0-0-0-0---|-0---0-0---0-0-0-|---0-0-0-0---0---|-12\----|
|
| Gtr II
| E E E E E E E E   E E E E E E   E E E E E E E E   E E E E E E E E    H
|-----------------|-------------|-----------------|-----------------|--------|
|-----------------|-------------|-----------------|-----------------|--------|
|-----------------|-------------|-----------------|-----------------|--------|
|-0---0-0---0-0-0-|---0-0-0-0---|-0---0-0---0-0-0-|---0-0-0-0---0---|--------|
|-0---0-0---0-0-0-|---0-0-0-0---|-0---0-0---0-0-0-|---0-0-0-0---0---|--------|
|-0---0-0---0-0-0-|---0-0-0-0---|-0---0-0---0-0-0-|---0-0-0-0---0---|--8\----|


 Chuga Chuga
  Half Time Q=72
  D5
 4/4                 5/4
  Gtrs I, II
  PM---------------------------------|
  E S Q.   S S S Q    H    +S  S S S Q   Q
|-------------------|------------------------|
|-------------------|------------------------|
|-------------------|------------------------|
|-------------------|------------------------|
|-0-0-0----0-0-0-0--|-0----(0)-0-0-0-0-------|
|-0-0-0----0-0-0-0--|-0----(0)-0-0-0-0--12\--|


 4/4
  PM-------------------------------|
  E S Q.   S S S Q    H    +S  S S S  Q
|-------------------|---------------------|
|-------------------|---------------------|
|-------------------|---------------------|
|-------------------|---------------------|
|-0-0-0----0-0-0-0--|-0----(0)-0-0-0------|
|-0-0-0----0-0-0-0--|-0----(0)-0-0-0-12\--|


   Get ready for it
    Q=152
    N.C.
    Gtrs I, II
    E E E E E E E E   E E E E E E E E   E E E E E E E E   E E E E E E E E
||------------------|-----------------|-----------------|-------------------||
||o-----------------|-----------------|-----------------|------------------o||
||------------------|-----------------|-----------------|-------------------||
||------------------|-----------------|-----------------|-------------------||
||o-----------------|-----------------|-----------------|------------------o||
||--0-3-5-0-1-3-0-3-|-0-3-5-0-1-3-3-3-|-0-3-5-0-1-3-0-3-|-0-3-5-0-1-3-3-3---||


 Enter The Pit
  D5
  Gtrs III, IV
  PM|    PM----|
  E E Q  S S S S Q    E E E E H
|-------------------|--------------|
|-------------------|--------------|
|-------------------|--------------|
|-----0----------0--|-0-0-0-0------|
|-0-0-0--0-0-0-0-0--|-0-0-0-0------|
|-0-0-0--0-0-0-0-0--|-0-0-0-0------|


    N.C.
  E  E  E E  E  E E  E   E  E  E E  E  Q.
|---18-20-0-16-18-0-18-|-0-18-20-0-16-18\----|
|---18-20-0-16-18-0-18-|-0-18-20-0-16-18\----|
|----------------------|---------------------|
|----------------------|---------------------|
|----------------------|---------------------|
|----------------------|---------------------|


  D5
  Gtr III                       Gtr IIG
  PM|    PM----|
  E E Q  S S S S Q    E E E E E Q.
|-------------------|-----------------|
|-------------------|-----------------|
|-------------------|-----------------|
|-----0----------0--|-0-0-0-0---------|
|-0-0-0--0-0-0-0-0--|-0-0-0-0---------|
|-0-0-0--0-0-0-0-0--|-0-0-0-0---1b2---|
|
| Gtr IV
| PM|    PM----|
| E E Q  S S S S Q    E E E E H
|-------------------|-----------------|
|-------------------|-----------------|
|-------------------|-----------------|
|-----0----------0--|-0-0-0-0---------|
|-0-0-0--0-0-0-0-0--|-0-0-0-0---------|
|-0-0-0--0-0-0-0-0--|-0-0-0-0---------|


    N.C.
 tr III
  E  E  E E  E  E E  E   E  E  E E  E  Q.
|---18-20-0-16-18-0-18-|-0-18-20-0-16-18\------|
|---18-20-0-16-18-0-18-|-0-18-20-0-16-18\------|
|----------------------|-----------------------|
|----------------------|-----------------------|
|----------------------|-----------------------|
|----------------------|-----------------------|
|
|    PM              PM        PM      PM
| E  E  H         E  E   Q     E Q     E  Q
|----------------------|-----------------------|
|----------------------|-----------------------|
|----------------------|-----------------------|
|----------------------|-----------------------|
|----0---------------0-|-------0-------0-------|
|----0---------------0-|-------0-------0-------|


  D5
  Gtrs III, IV
  PM|    PM----|
  E E Q  S S S S Q    E E E E H
|-------------------|--------------|
|-------------------|--------------|
|-------------------|--------------|
|-----0----------0--|-0-0-0-0------|
|-0-0-0--0-0-0-0-0--|-0-0-0-0------|
|-0-0-0--0-0-0-0-0--|-0-0-0-0------|


    N.C.
  E  E  E E  E  E E  E   E  E  E E  E  Q.
|---18-20-0-16-18-0-18-|-0-18-20-0-16-18\----|
|---18-20-0-16-18-0-18-|-0-18-20-0-16-18\----|
|----------------------|---------------------|
|----------------------|---------------------|
|----------------------|---------------------|
|----------------------|---------------------|


  D5                                   F5G5D5D#F5D5F5  D5F5G5D5D#F5
  PM|    PM----|
  E E Q  S S S S Q    E E E E H      E E E E E E E E   E E E E E E E E
|-------------------|--------------|-----------------|-------------------|
|-------------------|--------------|-----------------|-------------------|
|-------------------|--------------|-----------------|-------------------|
|-----0----------0--|-0-0-0-0------|---3-5-0-1-3-0-3-|-0-3-5-0-1-3-3-3---|
|-0-0-0--0-0-0-0-0--|-0-0-0-0------|---3-5-0-1-3-0-3-|-0-3-5-0-1-3-3-3---|
|-0-0-0--0-0-0-0-0--|-0-0-0-0------|---3-5-0-1-3-0-3-|-0-3-5-0-1-3-3-3---|


  D5
  Gtr III                       Gtr II
  PM|    PM----|
  E E Q  S S S S Q    E E E E E Q.
|-------------------|-----------------|
|-------------------|-----------------|
|-------------------|-----------------|
|-----0----------0--|-0-0-0-0---------|
|-0-0-0--0-0-0-0-0--|-0-0-0-0---------|
|-0-0-0--0-0-0-0-0--|-0-0-0-0---1b2---|
|
| Gtr IV
| PM|    PM----|
| E E Q  S S S S Q    E E E E H
|-------------------|-----------------|
|-------------------|-----------------|
|-------------------|-----------------|
|-----0----------0--|-0-0-0-0---------|
|-0-0-0--0-0-0-0-0--|-0-0-0-0---------|
|-0-0-0--0-0-0-0-0--|-0-0-0-0---------|


    N.C.
  E  E   E E  E  E E  E    E   E  E  E  E  Q.
|---18--20-0-16-18-0-18-|--0--18-20--0-16-18\----|
|---18--20-0-16-18-0-18-|--0--18-20--0-16-18\----|
|-----------------------|------------------------|
|-----------------------|------------------------|
|-----------------------|------------------------|
|-----------------------|------------------------|
|
|    PM-----------------------------------|
| E  H.               E   +Q      Q.       Q.
|-----------------------|------------------------|
|-----------------------|------------------------|
|-----------------------|------------------------|
|-----------------------|------------------------|
|----0----------------0-|-(0)-----0--------0-----|
|----0----------------0-|-(0)-----0--------0-----|


  D5
  Gtrs III, IV
  PM|    PM----|
  E E Q  S S S S Q    E E E E H
|-------------------|--------------|
|-------------------|--------------|
|-------------------|--------------|
|-----0----------0--|-0-0-0-0------|
|-0-0-0--0-0-0-0-0--|-0-0-0-0------|
|-0-0-0--0-0-0-0-0--|-0-0-0-0------|


    N.C.
  E  E  E E  E  E E  E   E  E  E E  E  E  E  E
|---18-20-0-16-18-0-18-|-0-18-20-0-16-18-18-18---|
|---18-20-0-16-18-0-18-|-0-18-20-0-16-18-18-18---|
|----------------------|-------------------------|
|----------------------|-------------------------|
|----------------------|-------------------------|
|----------------------|-------------------------|


  D5F5 G5 D5D#5F5 D5F5   D5F5 G5 D5D#5F5
  Gtr I
  E  E  E E  E  E E  E   E  E  E E  E  E  E  E
|----------------------|-----------------------|
|----------------------|-----------------------|
|----------------------|-----------------------|
|-0--3--5-0--1--3-0--3-|-0--3--5-0--1--3--3--3-|
|-0--3--5-0--1--3-0--3-|-0--3--5-0--1--3--3--3-|
|-0--3--5-0--1--3-0--3-|-0--3--5-0--1--3--3--3-|
|
| Gtr II
| E  E  E E  E  E E  E   E  E  E E  E  E  E  E
|-0-18-20-0-16-18-0-18-|-0-18-20-0-16-18-18-18-|
|-0-18-20-0-16-18-0-18-|-0-18-20-0-16-18-18-18-|
|----------------------|-----------------------|
|----------------------|-----------------------|
|----------------------|-----------------------|
|----------------------|-----------------------|


  D5F5 G5 D5D#5F5 D5F5   D5F5 G5 D5D#5F5
  E  E  E E  E  E E  E   E  E  E E  E  E  E  E
|----------------------|-----------------------|
|----------------------|-----------------------|
|----------------------|-----------------------|
|-0--3--5-0--1--3-0--3-|-0--3--5-0--1--3--3--3-|
|-0--3--5-0--1--3-0--3-|-0--3--5-0--1--3--3--3-|
|-0--3--5-0--1--3-0--3-|-0--3--5-0--1--3--3--3-|
|
| E  E  E E  E  E E  E   E  E  E E  E  E  E  E
|-0-18-20-0-16-18-0-18-|-0-18-20-0-16-18-18-18-|
|-0-18-20-0-16-18-0-18-|-0-18-20-0-16-18-18-18-|
|----------------------|-----------------------|
|----------------------|-----------------------|
|----------------------|-----------------------|
|----------------------|-----------------------|


  N.C.
  Gtr IV
  E  E  E E  E  E E  E   E  E  E E  E  E  E  E
|-0-18-20-0-16-18-0-18-|-0-18-20-0-16-18-18-18-|
|-0-18-20-0-16-18-0-18-|-0-18-20-0-16-18-18-18-|
|----------------------|-----------------------|
|----------------------|-----------------------|
|----------------------|-----------------------|
|----------------------|-----------------------|


  E  E  E E  E  E E  E   E  E  E E  E  E  E  E
|-0-18-20-0-16-18-0-18-|-0-18-20-0-16-18-18-18-|
|-0-18-20-0-16-18-0-18-|-0-18-20-0-16-18-18-18-|
|----------------------|-----------------------|
|----------------------|-----------------------|
|----------------------|-----------------------|
|----------------------|-----------------------|


 Outro
 5/4
  Gtrs I, II
  Q.        S S  E  S S Q.        S S
|-------------------------------------|
|-------------------------------------|
|-------------------------------------|
|-------------------------------------|
|-------------------------------------|
|-2b3-------0-0--3--0-0-2b3-------0-0-|
|
| Gtr III
| E    E  E E    E  E   E    E E  E
|-0---18-20-0---16-18---0---18-0-18---|
|-0---18-20-0---16-18---0---18-0-18---|
|-------------------------------------|
|-------------------------------------|
|-------------------------------------|
|-------------------------------------|


 7/4
   Q.        S S  E  S S E  S S  E S S  Q.        S S
|------------------------------------------------------|
|------------------------------------------------------|
|------------------------------------------------------|
|------------------------------------------------------|
|------------------------------------------------------|
|--2b3-------0-0--3--0-0-2--0-0--3-0-0--2b3-------0-0--|
|
|  E   E  E  E    E  E   E  E    E E    E    E E  E
|-20---0-16-18---18-18---0-18---20-0---16---18-0-18----|
|-20---0-16-18---18-18---0-18---20-0---16---18-0-18----|
|------------------------------------------------------|
|------------------------------------------------------|
|------------------------------------------------------|
|------------------------------------------------------|


 5/4
  Q.        S S  E  S S Q.        S S
|-------------------------------------|
|-------------------------------------|
|-------------------------------------|
|-------------------------------------|
|-------------------------------------|
|-2b3-------0-0--3--0-0-2b3-------0-0-|
|
| E    E  E E    E  E   E    E E  E
|-0---18-20-0---16-18---0---18-0-18---|
|-0---18-20-0---16-18---0---18-0-18---|
|-------------------------------------|
|-------------------------------------|
|-------------------------------------|
|-------------------------------------|


                                                      D5
 7/4                                                 2/4
   Q.        S S  E  S S E  S S  E S S  Q.        E   H
|---------------------------------------------------|------*|
|---------------------------------------------------|------*|
|---------------------------------------------------|------*|
|---------------------------------------------------|-0----*|
|---------------------------------------------------|-0----*|
|--2b3-------0-0--3--0-0-2--0-0--3-0-0--2b3-------0-|-0----*|
|
|  E   E  E  E    E  E   E  E    E E    E    E E  E   H
|-20---0-16-18---18-18---0-18---20-0---16---18-0-18-|------*|
|-20---0-16-18---18-18---0-18---20-0---16---18-0-18-|------*|
|---------------------------------------------------|------*|
|---------------------------------------------------|-0----*|
|---------------------------------------------------|-0----*|
|---------------------------------------------------|-0----*|



Duration Legend
---------------
W - whole; H - half; Q - quarter; E - 8th; S - 16th; T - 32nd; X - 64th; a - acciaccatura
+ - note tied to previous; . - note dotted; .. - note double dotted
Uncapitalized letters represent notes that are staccato (1/2 duration)
Irregular groupings are notated above the duration line
Duration letters will always appear directly above the note/fret number it represents the
duration for.  Duration letters with no fret number below them represent rests.  Multi-
bar rests are notated in the form Wxn, where n is the number of bars to rest for.  Low
melody durations appear below the staff

Tablature Legend
----------------
 h   - hammer-on
 p   - pull-off
 b   - bend
 pb  - pre-bend
 r   - bend release (if no number after the r, then release immediately)
 /\  - slide into or out of (from/to "nowhere")
 s   - legato slide
 S   - shift slide
 - natural harmonic
[n]  - artificial harmonic
n(n) - tapped harmonic
 ~   - vibrato
 tr  - trill
 T   - tap
 TP  - trem. picking
 PM  - palm muting
\n/  - tremolo bar dip; n = amount to dip
 \n  - tremolo bar down
 n/  - tremolo bar up
/n\  - tremolo bar inverted dip
 =   - hold bend; also acts as connecting device for hammers/pulls
 <> - volume swell (louder/softer)
 x   - on rhythm slash represents muted slash
 o   - on rhythm slash represents single note slash

Misc Legend
-----------
 |  - bar
||  - double bar
||o - repeat start
o|| - repeat end
*|  - double bar (ending)
 :  - bar (freetime)
 $  - Segno
 &  - Coda
Tempo markers -  = BPM(8/16=s8/s16), where s8 = swing 8ths, s16 = swing 16ths

Добавлено: 16.10.2013
Другие материалы по этой песне:
  • Аккорды и текст

Страница создана 16.10.2013
http://primanota.ru/norma-jean/charactarantula-talking-to-you-and-the-intake-of-glass-chords.htm
Привет, Гость.
Предлагаем пройти революционный курс по гитаре.
Подарок от PrimaNota.Ru, забирай!