PrimaNota.ru - самый крупный в мире бесплатный архив песенных текстов, аккордов, табулатур и нот


Паганини Никколо - Ариетта в D - аккорды и текст, видео

Регистрация Запомнить меня
Войти через:  Facebook Google Twitter Vk Yandex Mail.ru

Паганини Никколо - Ариетта в D - аккорды и текст, видео

Печатать
Просмотров: 79
Ариетта в D
Паганини Никколо
E|-2--0-|-------------------------0---2-|-3----0----------5--3-|
B|------|-2h3-------------------3-------|----------------------|
G|------|---------2---------------------|----------------------|
D|------|-0---------------0-------------|----------------------|
A|------|-------------------------------|-0---------0----------|
E|------|-------------------------------|----------------------|

E|-3p2---0-----------------------0-|-------------------2-----0-|
B|---------3-----2-0-----2-3-------|-2---3-0---2---------------|
G|---------------------------------|-------------2-------------|
D|-0-------------------------------|---------------------------|
A|---------------------------------|-0-----------0-------------|
E|-----------------3---------------|-------0-------------------|

E|-------------------0-----2-|-2h3-----0---------------5-----3-|
B|-2h3-------------3---------|---------------------------------|
G|-------2-------------------|---------------------------------|
D|-0-----------0-------------|---------------------------------|
A|---------------------------|-0---------------0---------------|
E|---------------------------|---------------------------------|

E|-2-----5-5p3---2-0-----3-3p2-0-|-------------------||-5----5-|
B|-------------------------------|-3-------3-------3-||-7----7-|
G|-------------------------------|-------------------||--------|
D|-0-----------------------------|-0-------0-------0-||--------|
A|-----------------0-------------|-------------------||--------|
E|-------------------------------|-------------------||--------|

E|-7-----5-7-----5-7-----5-3-----2-|-0---2-3----2-0----2-3---4-|
B|-8-----7-8-----7-8-----7-5-----3-|-2---3-5----3-2----3-5---6-|
G|-0---------------0---------------|---------------------------|
D|---------------------------------|---------------------------|
A|---------------------------------|-0------------0------------|
E|---------------------------------|---------------------------|

E|-5-----5-----4-5-----3-2-----0-|---------------------2---0-|
B|-7-----7-----6-7-----5-3-----2-|-3-----2-0-----4-2---------|
G|---------------------------------|-4-----2-1-----3-2---------|
D|-0---------------0---------------|---------------------------|
A|---------------------------------|-----------------0---------|
E|---------------------------------|-0-------------------------|

E|-------------------------0-----2-|-2h3---0-----------5-----3-|
B|-2h3-------------------3---------|---------------------------|
G|---------2-----------------------|---------------------------|
D|-0---------------0---------------|---------------------------|
A|---------------------------------|-0-----------0-------------|
E|---------------------------------|---------------------------|

E|-2-----5-5p3---2-0-----3-3p2---0-|--------------------------||
B|---------------------------------|--2h3-----3-------3-------||
G|---------------------------------|--------------------------||
D|-0-------------------------------|--0-------0-------0-------||
A|-----------------0---------------|--------------------------||
E|---------------------------------|--------------------------||
Добавлено: 24.07.2015
Другие материалы по этой песне:
  • Аккорды и текст

Страница создана 24.07.2015
http://primanota.ru/niccolo-paganini/arietta-v-d-2-chords.htm
Привет, Гость.
Предлагаем пройти революционный курс по гитаре.
Подарок от PrimaNota.Ru, забирай!