PrimaNota.ru - самый крупный в мире бесплатный архив песенных текстов, аккордов, табулатур и нот


Паганини Никколо - Каприз №2 - аккорды и текст, видео

Регистрация Запомнить меня
Войти через:  Facebook Google Twitter Vk Yandex Mail.ru

Паганини Никколо - Каприз №2 - аккорды и текст, видео

Печатать
Просмотров: 265
Каприз №2
Паганини Никколо
E|-19-21-22-19-21-18-20-17-19-16-18-15-|
B|-------------------------------------|
G|-------------------------------------|
D|-------------------------------------|
A|-------------------------------------|
E|-------------------------------------|

E|-17-14-16-13-15-12-14-11-13-10-12-9-|
B|------------------------------------|
G|------------------------------------|
D|------------------------------------|
A|------------------------------------|
E|------------------------------------|

E|-10-13-15-13-14---------|-----------------------------------|
B|-------------------14---|-12-14-15-12-14-11-13-10-12-9-11-8-|
G|----------------16------|-----------------------------------|
D|------------------------|-----------------------------------|
A|------------------------|-----------------------------------|
E|------------------------|-----------------------------------|

E|------------------------------|-----3---2------|
B|-10-7-9-6-8-5-7-4-6-3-5-2-----|-3-6---6------2-|
G|------------------------------|-----------4----|
D|------------------------------|----------------|
A|------------------------------|----------------|
E|------------------------------|----------------|

(2-ой отрывок)

E|----19-18-19-17-19-15-19-14-19----19--|
B|-------------------------------17-----|
G|-16-----------------------------------|
D|--------------------------------------|
A|--------------------------------------|
E|--------------------------------------|

E|----19----19----19----19----19----19-|
B|-15----14----------------------15----|
G|-------------16----15----16----------|
D|-------------------------------------|
A|-------------------------------------|
E|-------------------------------------|

E|----18-15-18-14-18----18----18----18-|
B|-14----------------17----15----14----|
G|-------------------------------------|
D|-------------------------------------|
A|-------------------------------------|
E|-------------------------------------|

E|----18----18----18----18----18----18-|
B|-------------------14----15----17----|
G|-16----15----16----------------------|
D|-------------------------------------|
A|-------------------------------------|
E|-------------------------------------|

E|----19----19----19----19----19----19-|
B|-15----------------------------------|
G|-------------------------------------|
D|-------16----14----------------------|
A|-------------------17----16----14----|
E|-------------------------------------|

E|----22----22----22----22----22----22-|
B|-------------------------------------|
G|-------------------------------------|
D|-17----21----19----17----16----17----|
A|-------------------------------------|
E|-------------------------------------|

E|----22----22----22----22----22----22-|
B|-------------------------------------|
G|-------------------------------------|
D|-16----21----17----16----15----16----|
A|-------------------------------------|
E|-------------------------------------|

E|---22----22----22----22----22----22-|
B|------------------------------------|
G|------19----18----------------------|
D|15----------------21----17----14----|
A|------------------------------------|
E|------------------------------------|

E|-----|
B|-----|
G|-----|
D|-16~-|
A|-----|
E|-----|
Добавлено: 23.11.2013
Другие материалы по этой песне:
  • Аккорды и текст

Страница создана 23.11.2013
http://primanota.ru/niccolo-paganini/kapriz-n2-chords.htm
Привет, Гость.
Предлагаем пройти революционный курс по гитаре.
Подарок от PrimaNota.Ru, забирай!