PrimaNota.ru - самый крупный в мире бесплатный архив песенных текстов, аккордов, табулатур и нот


Паганини Никколо - Каприз №11 - аккорды и текст, видео

Регистрация Запомнить меня
Войти через:  Facebook Google Twitter Vk Yandex Mail.ru

Паганини Никколо - Каприз №11 - аккорды и текст, видео

Печатать
Просмотров: 153
Каприз №11
Паганини Никколо
(трель)
E-------7--5--3--1---------------------------------------------------|
B--8----0----------6-----5----3----1----------------5--3-------------|
G--5--------------------------1---------5--7-5-4-5---------4h5p4h5p4-|
D-------0----------5-----5---------2----4-----------5------3---------|
A--7---------------3-----3----2----0---------------------------------|
E---------------------------------------4-----------3------3---------|
   C    G          Csus4 C    E7   Am   D7b5/Ab     G      G7
 
                (tr)
E----8--7-5---------------8--765---------------8---6-4-4-3---3--2--3-|
B-----------8-------------------98-----------------------------------|
G----5----------4h5p4h5---5----------454545----5-------------------4-|
D---------------3--------------------3-------------------------------|
A----7--------------------7--------------------6-------------------5-|
E---------------3--------------------3-------------------------------|
     C          G7        C          G7        Cm                  G

 ...Это "минорная" часть, изменение настроения....
                                           (напряжение здесь)
E----------6--5---------------3--1-------------------------------|
B----8-----------8--6--4------------4--3--1--4--3--6--4--4--4--3-|
G----------3------------------0----------------------------------|
D----8-----------------5-----------------------------------------|
A----6-----5-----------3------1--------------0--1--2--3--2--1--1-|
E-----------------------------------------4----------------------|
     Eb    Bb/D        Cm     Gm/Bb       ???                 Bb

     (tr)                     (tr)                    (tr)
E-------------------------------------------------------------|
B---------------4--3--1-----------------4-3-2-1---------------|
G----3h5p3h5p3-----------3----3h5p3h5-----------4-3---4h5p4h5-|
D---------------1-----------------------1---------------------|
A-------------------------------------------------------------|
E----4----------3-------------4---------3-------------4-------|
     Ab         Eb            Ab        Eb

                      Более напряжённо...     замедление.....
E-----------------------4-3---4-3------8----------------------|
B-----3-4-4-3------------------------8-----9-6---8-4-----6--3-|
G---5---------5--4-5--4-----4------5-----6-----5------4-------|
D---------------------5-----3------5-----6-----5------3-------|
A----------------------------------6-----8-----6------5-------|
E---3-----4---3-----------------------------------------------|
                      G7           Cm    Db    Cm     G7

 Медленное ускорение...     (Эта часть подобна началу)
E-------------------------------7-5----------------------|
B--------------------5-6-7-8--------8-6--6---5----3----1-|
G------------5-6-7-8-------5----4-----------------1------|
D---5--7-8-9-----------------------------5---5---------2-|
A--------------------------7----5--------3---3----2----0-|
E--------------------------------------------------------|
                           C    G            C    E7   Am

                              ...Напряжённо....
E----------------------3--------8-7------7-8------10-8-----8-10-----|
B---------------5--3---------8-------10-------10--------12-------12-|
G---5--7-5-4-5---------4-----5----------------7------------------9--|
D---4-----------5------3-------------10-----------------12----------|
A----------------------------7-------8--------9---------10-------11-|
E---4-----------3------3--------------------------------------------|
    D7b5/Ab     G      G7    C       F        D          G       E

                    |-------прекрасный аккорд...
                    V
E--12-10--8--10-12--13--10----10------------------|
B---------------------------------13---13------12-|
G---------9---------10--------9--------12------12-|
D---------7---------------------------------------|
A-------------------11--------10-------10------10-|
E-------------------------------------------------|
          Am        G#dim??   Cadd9    Gadd11  G


     финальные                          тянуть....
E-----------------------------------------------|
B---------------------------------------------3-|
G----5-----5---5-----5---5---5---3---3---2------|
D----2-----3---5-----7---7---4---5---2---3----3-|
A----3-----5---7-----8---6---5---5---3---3------|
E---------------------------------------------4-|
     C     Dm7 C/E   F   F7  D7  Gm  C7  F    G#dim

                   forte
E---------------------------|
B---------------------------|
G----5------4------5--------|
D----2-------------2--------|
A-----------5------3--------|
E----3------3---------------|
     C      G      C

Замечание:Аккорды звучат лучше если вы проводите по ним своими
пальцами, тогда каждая нота является, как бы дополнением
предыдущей. Концовка, например, должна выглядить так.

                                                     тянуть....
E|--------------------------------------------------------|
B|------------------------------------------------------3-|
G|------5-----5----5-----5----5----5----3----3----2-------|
D|-----2-----3----5-----7----7----4----5----2----3-----3--|
A|----3-----5----7-----8----6----5----5----3----3---------|
E|----------------------------------------------------4---|
      C     Dm7  C/E   F    F7   D7   Gm   C7   F     G#dim?

...но проще это записать аккордами, для экономии пространства.

Добавлено: 13.10.2013
Другие материалы по этой песне:
  • Аккорды и текст

Страница создана 13.10.2013
http://primanota.ru/niccolo-paganini/kapriz-n11-chords.htm
Привет, Гость.
Предлагаем пройти революционный курс по гитаре.
Подарок от PrimaNota.Ru, забирай!