PrimaNota.ru - самый крупный в мире бесплатный архив песенных текстов, аккордов, табулатур и нот


Паганини Никколо - Каприз №1 - аккорды и текст, видео

Регистрация Запомнить меня
Войти через:  Facebook Google Twitter Vk Yandex Mail.ru

Паганини Никколо - Каприз №1 - аккорды и текст, видео

Печатать
Просмотров: 197
Каприз №1
Паганини Никколо
E|-----0-0-----------2-2-------------0-0-------------7-7-------|
B|---0-----0-------0-----0---------0-----0---------4-----4-----|
G|--1--------1----2--------2-----1---------1-----4---------4---|
D|-2----------2-1------------1-2-------------2-----------------|
A|-------------------------------------------------------------|
E|---------------------------------------------7-------------7-|
 
E|------0-0------------2-2------------0-0------------7-7-------|
B|----0-----0--------0-----0--------0-----0--------4-----4-----|
G|--1---------1----2---------2----1---------1----4---------4---|
D|-2------------2-1------------1-2------------2----------------|
A|-------------------------------------------------------------|
E|----------------------------------------------7------------7-|

E|-------4-4-------------5-9-12-------6-6-------------7-11-14-|
B|------------------------------------------------------------|
G|-----4-----4---------6------------6-----6---------8---------|
D|---2---------2------------------4---------4-----------------|
A|-------------------7----------------------------9-----------|
E|-4-------------4-5------------6-------------6-7-------------|

E|-------11-11-----------12-12------------14-14--------|
B|----------------------9-----9--------12-------12-----|
G|-----11-----11---------------------------------------|
D|----9---------9------9-------9-----13-----------13---|
A|-------------------7-----------7-9-----------------9-|
E|-11-------------11-----------------------------------|

E|--------16-16----------------17-17---------|
B|------12-----12-----------14-------14------|
G|---------------14--------------------------|
D|----14-----------------14-------------14---|
A|-11--------------11-12-------------------0-|
E|-------------------------------------------|

E|-------9-9-------------12-12-------------9-9-------|
B|-----5-----5---------8-------8---------5-----5-----|
G|---------------------------------------------------|
D|---5---------5-----8-----------8-----5---------5---|
A|---------------------------------------------------|
E|-6-------------6-9---------------9-6-------------6-|

E|--------18-18---------------15-15--------------12-12-------|
B|---------------------------------------------8-------8-----|
G|------18-----18-----------15-----15------------------------|
D|----14---------14--------------------------8-----------8---|
A|------------------------16---------16----------------------|
E|-15---------------15-12---------------12-9---------------9-|

E|-------7-11-14-------2-2-------------4-7-12-------2-2-----|
B|-------------------0-----0----------------------0-----0---|
G|-----8-----------------------------4----------------------|
D|-----------------1---------1-----2------------1---------1-|
A|---9-----------0-------------0--------------0-------------|
E|-7-----------------------------4--------------------------|

E|---------4----12-|---5---7---9---8---7---7----12-|
B|-----------12----|-------5--------------------9--|
G|-------4---------|---6-------9---9---9---8----9--|
D|-----2-----------|-------6---7---8---6--------9--|
A|-0---------------|---7-------------------9----11-|
E|---4-------------|-5---7---9---8---7---7---0-----|

E|-------0-0-----------------------------0-0-------------7-7--|
B|-----------------------7-7----------------------------------|
G|-----4-----4---------4-----4---------4-----4---------8------|
D|---5---------5-----4---------4-----5---------5--------------|
A|-7-------------7-6-------------6-7-------------7---9--------|
E|-------------------------------------------------7----------|

E|-------------0-0---------------------------0-0-------------7-|
B|----------------------------7-7------------------------------|
G|-8---------4-----4---------4----4--------4-----4---------8---|
D|---------5---------5-----4--------4-----5--------5-----------|
A|---9---7-------------7-6------------6-7------------7---9-----|
E|-----7-----------------------------------------------7-------|

E|-7-------------7-7-------------8-8-------------5-5-------|
B|---------------------------------------------------------|
G|---8---------7-----7---------7-----7---------7-----7-----|
D|---------------------------4---------4-----4---------4---|
A|-----9-----9---------9---0-------------0-0-------------0-|
E|-------7-7-------------7---------------------------------|

E|-----------------------3-3-------------7-7-------------10-|
B|-------3-3-------------------------------------------0----|
G|-----4-----4---------4-----4---------0-----0--------------|
D|---------------------------------------------------0------|
A|---5---------5-----5---------5-----5---------5--"10"------|
E|-3-------------3-3-------------3-3-------------3-3--------|

E|-10-------------8---12-|
B|----0------------------|
G|--------------9-----12-|
D|------0----------------|
A|-------"10"-10------12-|
E|--------3-8-------9----|

E|----------10----14----------12----14----15----17----19---8-|
B|----------------------------------------12----15----15---5-|
G|-------11-------14-------12-------14---------------------0-|
D|----------------------------------12----12----16----17-----|
A|----12----------14----15-------------------12----14--------|
E|-10----------11----12----------14----15----------------8---|

E|-------12-15------10-8--7------------------|
B|-----8------------12-10-8-10-8-7-5-3-1-0---|
G|--------------------------11-9-7-5-4-2-0-2-|
D|---8-------------------------------------4-|
A|-------------------------------------------|
E|-9-----------9-10--------------------------|

E|-------3-3-------------2-2-------10-8--7------------------|
B|-----0-----0---------1-----1-----12-10-8-10-8-7-5-3-1-0---|
G|-----------------------------------------11-9-7-5-4-2-0-2-|
D|---0---------0-----1---------1-0------------------------4-|
A|----------------------------------------------------------|
E|-3-------------3-3-------------3--------------------------|

E|-------3-3-------------2-2-------10-8--7-5--3-2-----------|
B|-----0-----0---------1-----1-----12-10-8-7--5-3-5-3-1-0---|
G|------------------------------------------------5-4-2-0-2-|
D|---0---------0-----1---------1-0------------------------4-|
A|----------------------------------------------------------|
E|-3-------------3-3-------------3--------------------------|

E|-------3-3-------------3-3-------|----9--8-6-6-4-3-----------|
B|---------------------------------|----11-9-8-8-6-4-6-4-2-1---|
G|-----4-----4---------3-----3-----|-----------------6-5-3-1-3-|
D|---0---------0-----0---------0---|-------------------------5-|
A|---------------------------------|--6------------------------|
E|-3-------------3-3-------------3-|--3------------------------|

E|-------4-4-------------4-4-------|---10-9--7-7-5-4-----------|
B|---------------------------------|---12-10-9-9-7-5-7-5-3-----|
G|-----5-----5---------4-----4-----|-----------------7-6-4-6-4-|
D|---------------------------------|-----------------------7-6-|
A|---6---------6-----6---------6---|-7-------------------------|
E|-4-------------4-4-------------4-|-4-------------------------|

E|-------5-5-----------5-5-------|---11-10-8--8--6-5-----------|
B|-------------------------------|---13-11-10-10-8-6-8-6-4-----|
G|-----6-----6-------5-----5-----|-------------------8-7-5-7-5-|
D|-------------------------------|-------------------------8-7-|
A|---7--------7-----7--------7---|-8---------------------------|
E|-5------------5-5------------5-|-5---------------------------|

E|-------6-6-------------6-6-------|
B|---------------------------------|
G|-----7-----7---------6-----6-----|
D|---------------------------------|
A|---8---------8-----8---------8---|
E|-6-------------6-6-------------6-|

E|--------6-6-------------9-9-------|
B|----------------------------------|
G|------6-----6---------9-----9-----|
D|----------------------------------|
A|----9---------9-----9---------9---|
E|--6-------------6-6-------------6-|

E|-------7-7-------------7-7-------|
B|---------------------------------|
G|-----8-----8---------7-----7-----|
D|---------------------------------|
A|---9---------9-----9---------9---|
E|-7-------------7-7-------------7-|

E|---------7-7----------------10-10---------|
B|------------------------------------------|
G|-------7-----7-----------10-------10------|
D|------------------------------------------|
A|----10---------10-----10-------------10---|
E|--7---------------7-7-------------------7-|

E|--------8-8---------------8-8--------|
B|-------------------------------------|
G|------9-----9-----------8-----8------|
D|-------------------------------------|
A|---10---------10-----10---------10---|
E|-8---------------8-8---------------8-|

E|--------8-8--------------11-11--------|----------------------|
B|-----------------------7-------7------|------------6-6-------|
G|------8-----8-------------------------|Pause-----6-----6-----|
D|--------------------------------------|----------------------|
A|---11---------11----11-----------11---|--------8---------8---|
E|-8--------------8-8-----------------8-|------9-------------9-|

E|---------------------------------|
B|-------7-7-------------6-6-------|
G|-----8-----8---------6-----6-----|
D|---------------------------------|
A|---6---------6-----8---------8---|
E|-8-------------8-9-------------9-|

E|--------4-4-------------0-0-------|
B|----------------------2-----2-----|
G|------5-----5---------------------|
D|--------------------2---------2---|
A|----6---------6---4-------------4-|
E|--4-------------4-----------------|

E|-------2-2-------------0-0-------|
B|-----4-----4---------2-----2-----|
G|---------------------------------|
D|---1---------1-----2---------2---|
A|-3-------------3-4-------------4-|
E|---------------------------------|

E|--------4-4-------------0-0-------|
B|------1-----1---------2-----2-----|
G|----------------------------------|
D|----1---------1-----2---------2---|
A|------------------4-------------4-|
E|--4-------------4-----------------|

E|-------0-0-------------5-5-------|--------9-9---------7---7-|
B|-----3-----3---------------------|------5-----5-------------|
G|---1---------1-------6-----6-----|--------------------8---8-|
D|---------------------------------|----5---------5-----------|
A|-2-------------2---7---------7---|--------------------9-0-9-|
E|-----------------5-------------5-|--6-------------6-7-------|

E|---4---5---7---7-|-----12--------0-0-------|
B|-------2---5-----|-----9-------------------|
G|---4-----------8-|-----9-------4-----4-----|
D|---2---2---6-----|-----9-----6---------6---|
A|-----0---------9-|-----11--7-------------7-|
E|-4-------7---7---|--0----------------------|

E|-------0-0-------------0-0-------|
B|---------------------------------|
G|-----5-----5---------3-----3-----|
D|---7---------7-----5---------5---|
A|-7-------------7-7-------------7-|
E|---------------------------------|

E|------------------9--------------|
B|--------5-12-10-9-10-12-10-9-7-5-|
G|------4---13-11-9----13-11-9-8-6-|
D|----6----------------------------|
A|--7------------------------------|
E|---------------------------------|

E|-------7-7-------------7-7-------|
B|-----5-----5---------------------|
G|---------------------8-----8-----|
D|---6---------6-------------------|
A|-------------------9---------9---|
E|-7-------------7-7-------------7-|

E|--------0-16-12-------12-12-------|
B|------0-------------9-------9-----|
G|----------------------------------|
D|----6-------------9-----------9---|
A|--7-------------7---------------7-|
E|----------------------------------|

E|---------12-12---------------12-12-------|--------12-----|
B|------10-------10----------8-------8-----|------9--------|
G|-----------------------------------------|---------------|
D|---11-------------11-----8-----------8---|----9------6-7-|
A|-7-------------------7-7---------------7-|--7--------7-9-|
E|-----------------------------------------|---------------|

E|------------------|--------12-12-------------11-11-------|
B|-----------7-9-10-|------9-------9---------7-------7-----|
G|----6-8-9--8-9-11-|----9-----------9-----8-----------8---|
D|-9--7-9-11--------|--9---------------9-9---------------9-|
A|-11---------------|--------------------------------------|
E|------------------|--------------------------------------|

E|-----------16---------------------17---------|
B|--------17---------------------17------------|
G|----------------------------14-------14------|
D|------14------14-----------------------------|
A|----14----------14-------15-------------15---|
E|-0-----------------0--0--------------------0-|

E|-----------16---------------------17---------|
B|--------17---------------------17------------|
G|----------------------------14-------14------|
D|------14------14-----------------------------|
A|----14----------14-------15-------------15---|
E|-0-----------------0---0-------------------0-|

E|-----------16---------------12-----|---7-5-4-----------------|
B|--------17----------------8--------|---9-7-5-7-5-4-----------|
G|-----------------------------------|---------8-6-4-6-4-------|
D|-----14-------14--------8----------|---------------7-6-7-6-4-|
A|---14-----------14-----------------|-------------------9-7-6-|
E|-0-----------------0--9--------9-6-|-7-----------------------|

E|---------4---------------5-------|
B|-------5---------------5---------|
G|-----4-----4---------5-----5-----|
D|---6---------6-----7---------7---|
A|-7-------------7-7-------------7-|
E|---------------------------------|

E|----------4---------------5-------|
B|--------5---------------5---------|
G|------4-----4---------5-----5-----|
D|----6---------6-----7---------7---|
A|--7-------------7-7-------------7-|
E|----------------------------------|

E|---------4---------------3---|--------7---------------------|
B|-------5---------------5---5-|----5-------------------------|
G|-----4-----4---------3-------|----4-------------------------|
D|---6---------6-----5---------|------6----------6-7-9--11-13-|
A|-7-------------7-4-----------|----------6-7-9--7-9-11-12-14-|
E|-----------------------------|--7-------7-9-11--------------|

E|----------0-0-------------------0-|
B|-------12-----12-------------13---|
G|----13-----------13-------14------|
D|-14-----------------14-14---------|
A|----------------------------------|
E|----------------------------------|

E|-0-------------------0-0----------|
B|---13-------------12-----12-------|
G|------14-------13-----------13----|
D|---------14-14-----------------14-|
A|----------------------------------|
E|----------------------------------|

E|----------0-0-------------------0-|
B|-------12-----12-------------10---|
G|----11-----------11-------11------|
D|-13-----------------13-11---------|
A|----------------------------------|
E|----------------------------------|

E|-0-------------------0-0----------|
B|---10-----------------------------|
G|------11----------13-----13-------|
D|---------11----13-----------13----|
A|------------14-----------------14-|
E|----------------------------------|

E|-------0-0-------------0-0-------------0-0-------|
B|-----7-----7---------4-----4---------5-----5-----|
G|---6---------6-----2---------2-----1---------1---|
D|-7-------------7-4-------------4-2-------------2-|
A|-------------------------------------------------|
E|-------------------------------------------------|

E|-------0-0-------------0-0-------------0-0-------|
B|-----4-----4---------5-----5---------4-----4-----|
G|---2---------2-----1---------1-----2---------2---|
D|-3-------------3-2-------------2-3-------------3-|
A|-------------------------------------------------|
E|-------------------------------------------------|

E|-----0------0--------0-|-0-------------0-0-------|--0----0-|
B|---5------9--------5---|---9---------5-----9-----|--0------|
G|-----------------------|-------------------------|--1------|
D|---6------6------6-----|-----6-----6---------6---|--2------|
A|---------------7-------|-------7-7-------------7-|--2------|
E|-0------0--------------|-------------------------|--0------|
Добавлено: 06.02.2014
Другие материалы по этой песне:
  • Аккорды и текст

Страница создана 06.02.2014
http://primanota.ru/niccolo-paganini/kapriz-n1-chords.htm
Привет, Гость.
Предлагаем пройти революционный курс по гитаре.
Подарок от PrimaNota.Ru, забирай!