PrimaNota.ru - самый крупный в мире бесплатный архив песенных текстов, аккордов, табулатур и нот


Паганини Никколо - Каприз №16 - аккорды и текст, видео

Регистрация Запомнить меня
Войти через:  Facebook Google Twitter Vk Yandex Mail.ru

Паганини Никколо - Каприз №16 - аккорды и текст, видео

Печатать
Просмотров: 205
Каприз №16
Паганини Никколо
E|-------3-5-6-2-5-3-------|------------10--8------------------|
B|-----3-------------3-----|-------------------10--7-----------|
G|---3-----------------3---|---2---2------------------7--------|
D|-5---------------------5-|-4---1---0-------------------10--7-|
A|-------------------------|-----------------------------------|
E|-------------------------|-----------------------------------|
 
E|-----------------8---------------------|
B|--------------7-----10--7--------------|
G|-----------8---------------8-----------|
D|----7--10---------------------10--8--7-|
A|-9-------------------------------------|
E|---------------------------------------|

E|----------------------------13p10---|
B|-------------------------12------12-|
G|----7-----7-----------12------------|
D|-8-----7-----------12---------------|
A|------------10h14-------------------|
E|------------------------------------|

E|-8----------------------11p8------|
B|---8-----------------10-------10--|
G|-----8------------10--------------|
D|-------10------10-----------------|
A|------------12--------------------|
E|----------8-----------------------|

E|-6-----------------------8-------|
B|---6---------11-10-8-------10----|
G|-----7------------------------11-|
D|-------8-------------------------|
A|----------------------9----------|
E|----------6----------------------|

E|----------------------------------|
B|-11p8-----11---11---11---11---11--|
G|----------------------------------|
D|----------------------------------|
A|-------10----8----6----5----4-----|
E|----------------------------------|

E|----------10----14-10----------------|
B|----10-------10-------10-------------|
G|-------11----------------11----------|
D|----------------------------12-10----|
A|----------------------------------12-|
E|-10----------------------------------|

повторить от начала

E|-------------------------|---------------------------|
B|---------6-9-8-6-----9-8-|-6-------------------------|
G|-------7---------7-------|---8-7-5---8----10---8---7-|
D|---5-9-------------9-----|---------------------------|
A|-------------------------|---------------------------|
E|-7-----------------------|---------8---10----8---6---|

E|---------------------|----|------------------------------|
B|-----------7-6-------|7-6-|---------------------11-------|
G|-------5-8-----8-5---|----|-8-7-5-----7----10---------10-|
D|---3-7-------------7-|----|-------8----------------------|
A|---------------------|----|-------------------8----------|
E|-5-------------------|----|---------6---10---------10----|

E|---------------------------|-----|---------------------13h18-|
B|10p8------8p6--------------|-----|------------------15-------|
G|------------------10p8-----|-8p7-|----------7h10-15----------|
D|---------------------------|-----|--------8------------------|
A|-----6-10-----5-8----------|-----|------8--------------------|
E|-----------------------8-11|-----|-6-10----------------------|

E|-------------------------------------|----------|
B|-------14-------------14-------------|----------|
G|-14-15----15-------------15----------|----------|
D|-------------17-15-14-------17-15-14-|-17-15-14-|
A|-------------------------------------|----------|
E|-------------------------------------|----------|

E|---------------------------|
B|---------------------------|
G|---------------------------|
D|16-15-14-17-15-14-15-13----|
A|------------------------15-|
E|---------------------------|

E|-------------------------------------|-------|
B|-------------------------------------|-------|
G|-------------------------------------|-------|
D|-12----------------------------------|-------|
A|----13-12-14-13-12-15-13-12-13-------|-------|
E|-------------------------------14-12-|-15-13-|

E|12-14-13-12-15-13-12-13-------|
B|------------------------16-13-|
G|------------------------------|
D|------------------------------|
A|------------------------------|
E|------------------------------|

E|-------------------------------------|-------|
B|-15----------------------------------|-------|
G|----15-14-16-15-14-17-15-14-15-------|-------|
D|-------------------------------16-14-|-17-15-|
A|-------------------------------------|-------|
E|-------------------------------------|-------|

E|-----------------------------|----------------------------|
B|-----------------------------|----------------------------|
G|-----------------------------|----------6-7---------------|
D|14-16-15-13------------------|--------8-----7-10-8--------|
A|------------15-12------------|------8--------------8------|
E|------------------13-12-11-8-|-6-10------------------10-6-|

E|---8-5-8---8---8-|--8---8-|-------------------------|
B|---------6-------|--------|---------3-4---3---------|
G|-------------8---|5-------|-----2-5-----4---5-2-----|
D|-----------------|----7---|-------------------------|
A|-----------------|--------|-3h6-----------------6-3-|
E|-5---------------|--------|-------------------------|

E|---10-6-10---10---10---10---10-|----11-|
B|-----------6-------------------|-------|
G|----------------7--------------|-------|
D|-0-------------------8---------|-------|
A|--------------------------8----|-10----|
E|-------------------------------|-------|

E|10-11---10-9-10---9-8-9-|---10-9-10---8-7-8---6-5-6-|
B|------------------------|---------------------------|
G|------------------------|---------------------------|
D|------------------------|---------------------------|
A|------8---------7-------|-8---------6-------5-------|
E|------------------------|---------------------------|

E|--------------------|-----6h11-|
B|--------------------|8h11------|
G|---------------8h12-|----------|
D|------5h8-8h11------|----------|
A|-6h10---------------|----------|
E|--------------------|----------|

E|-------------------------8h11-|-------------------------8h11-|
B|--------------------9h13------|-------------------10h13------|
G|-----------5h8-8h13-----------|----------5h8-8h14------------|
D|------6h10--------------------|-----7h10---------------------|
A|-6h11-------------------------|6h12--------------------------|
E|------------------------------|------------------------------|

E|-10-13----------10------------------|
B|-------10-13-11-------10----11------|
G|-------------------11----12------10-|
D|-------------------------------12---|
A|------------------------------------|
E|------------------------------------|

E|----------------------------------|
B|---------------11-10-9------------|
G|----12-----------------12-11-10-9-|
D|-14----9-12-10--------------------|
A|----------------------------------|
E|----------------------------------|

E|-----------------------------|
B|-----------------------------|
G|-12-10-----------------------|
D|-------12-8------------------|
A|------------10-7-9-8-7-8-6---|
E|---------------------------8-|

E|---------------------------------|------------|
B|---11-10-9-----------------------|------------|
G|-----------12-11-10-9-12-11-10-9-|-12-11-10-9-|
D|---------------------------------|------------|
A|---------------------------------|------------|
E|-6-------------------------------|------------|

E|----------------|---6--------------------------|
B|----------------|-------8---8------------------|
G|8-7-5-----------|----------------7-----5----3--|
D|------8-7-6-5-4-|-5----------------------------|
A|----------------|-----5------------------------|
E|----------------|---------8----6----5-----3----|

E|--------------------10----|14-|---8--------------------------|
B|-----------7---10-7----10-|---|-------10---------------------|
G|-------7-----7------------|---|-------------11---8---7-----5-|
D|---4-7---7----------------|---|-7----------------------------|
A|-5------------------------|---|-----6------------------------|
E|--------------------------|---|----------10----8---6----5----|

E|-----------3---6---10----15-|13p10----|
B|-------3-----3---8----11----|------12-|
G|---3-----3------------------|---------|
D|-----5----------------------|---------|
A|----------------------------|---------|
E|-3--------------------------|---------|

E|------------------------|-------------------------|
B|---12p8-----------------|-------------------------|
G|12------10--------------|-----------------------5-|
D|-----------12-9---------|-----------5-4-7-5-8-7---|
A|----------------10-8----|---6-5-8-6---------------|
E|---------------------10-|-8-----------------------|

E|------------------5---6-|----8----10-------------------------|
B|-----------7-5-8-7--8---|-10---11-------11----13----10----11-|
G|---7-5-8-7--------------|------------12----14----10----12----|
D|-8----------------------|------------------------------------|
A|------------------------|------------------------------------|
E|------------------------|------------------------------------|

E|---------------------------|---------|------------------|
B|---8----10---6---8---4---6-|---3---4-|---------2h3h4----|
G|-8---10----7---8---5---7---|-3---5---|-2h3h4h5-------5--|
D|---------------------------|---------|------------------|
A|---------------------------|---------|------------------|
E|---------------------------|---------|------------------|

E|---10---8---6--------------|---------------------------|
B|----------------8-7--------|---11-10-9-8-7-6-5-------7-|
G|---------------------------|-------------------8-7-----|
D|-8----7---5----------------|---------------------------|
A|--------------5------------|-----------------------5---|
E|--------------------8-6-5--|-3-------------------------|

E|----6-5-4------------------|------------------------10-14-|
B|----------8-7-6-5-------7--|------------------------------|
G|------------------8-7------|------------------------------|
D|---------------------------|---8-7-6----------------------|
A|----------------------5----|---------10-9-8-7-------------|
E|-3-------------------------|-3----------------11-10-------|

E|----------------|---------10-14--|---15-10---10-6---6-3-|
B|----------------|----------------|----------------------|
G|----------------|----------------|----------------------|
D|---8-7-6--------|----------------|----------------------|
A|---------10-9-8-|-7--------------|----------------------|
E|-3--------------|---11-10--------|-3-------3------3-----|

E|-------------------|------------|---------|--3-|
B|---8-3-------------|------------|---------|----|
G|---------7-3-------|------------|---------|--3-|
D|---------------8-5-|------------|---------|--0-|
A|-------------------|------------|3-4-5-1--|----|
E|-3-----3-----3-----|-3--3-5-6-7-|---------|--3-|
Добавлено: 03.11.2013
Другие материалы по этой песне:
  • Аккорды и текст

Страница создана 03.11.2013
http://primanota.ru/niccolo-paganini/kapriz-n16-chords.htm
Привет, Гость.
Предлагаем пройти революционный курс по гитаре.
Подарок от PrimaNota.Ru, забирай!