PrimaNota.ru - самый крупный в мире бесплатный архив песенных текстов, аккордов, табулатур и нот


Паганини Никколо - Каприс №5 - аккорды и текст, видео

Регистрация Запомнить меня
Войти через:  Facebook Google Twitter Vk Yandex Mail.ru

Паганини Никколо - Каприс №5 - аккорды и текст, видео

Печатать
Просмотров: 165
Каприс №5
Паганини Никколо
E||---------------0--------------------0-5---|
B||-------------1---1----------------1-------|
G||-----------2-------2------------2---------|
D||---------2-----------2--------2-----------|
A||--0h---3---------------3p0h3----------0---|
E||------------------------------------------|

  a   m   i  m   i
|--3p1p0--------------------------------0-------------------0-5-8----|
|--------3p1p0------------------------1---1---------------1----------|
|--------------2p1------------------2-------2-----------2------------|
|------------------3p2p0----------2-----------2-------2--------------|
|------------------------3p2p0-h3---------------3p0h3-----------0----|
|--------------------------------------------------------------------|

|--7p5p4---0--------------------------------0-------------------0-|
|--------6---3p1p0------------------------1---1---------------1---|
|------------------2p1------------------2-------2-----------2-----|
|----------------------3p2p0----------2-----------2-------2-------|
|----------------------------3p2p0-h3---------------3p0h3---------|
|-----------------------------------------------------------------|

|-----8-12----10p8p7--------0-----------------------------|
|--10----------------10p9p6---3p1p0-----------------------|
|-----------------------------------2p1-----------------2-|
|---------------------------------------3p2p0---------2---|
|-------0-------------------------------------3p2p0h3-----|
|---------------------------------------------------------|

|----0-------------------0----8-12-17--------|
|--1---1---------------1---10----------------|
|--------2-----------2-----------------------|
|----------2-------2-------------------------|
|------------3p0h3-----------------0---------|
|--------------------------------------------|

|--15-13-12-10p8p7--------0-----------------------|
|------------------10p9p6---3p1p0-----------------|
|---------------------------------2p1-------------|
|-------------------------------------3p2p0-------|
|-------------------------------------------3p2p0-|
|-------------------------------------------------|

Molto Legato
|----------------------------------------0/1/2/3/4/5/4/3/2/1p0-|
|------------------------------0/1/2/3/4-----------------------|
|----------------------0/1/2/3---------------------------------|
|------------0/1/2/3/4-----------------------------------------|
|--0/1/2/3/4---------------------------------------------------|
|--------------------------------------------------------------|
  3.........2........ 1...... 1........ 1.........2.........

                      <
|------------------------------------------5--|
|-4p3p2p1p0--------------------------------5--|
|-----------3p2p1p0------------------------5--|
|-------------------4p3p2p1p0--------------7--|
|-----------------------------4p3p2p1p0----7--|
|------------------------------------------5--|

Agitato
  p i a m p i a m p a  i m i
|----------------------------------|----------------------------------|
|----------------------------------|----------------------------------|
|--------------------2p0-----------|--------------------2p0-----------|
|------2-------2---------3-2-------|------2-------2---------3-2-------|
|----3---3---5---5-3---------5-3-2-|----3---3---5---5-3---------5-3-2-|
|--5-------7-----------------------|--5-------7-----------------------|

|----------------------------------|------------------------0-------11-12-|
|----------------------------------|----------------------0------12-------|
|----------------------------------|--------------2-----1-----13----------|
|------2-------3-------3-------2---|------3p0-------1-2-------------------|
|----4---4---5---5---2---2---3---3-|----2-----3p0-------------------------|
|--5-------5-------3-------3-------|--4-----------------------------------|
  4     4 3 1                                3 2 1 2

  p i a m      p a  m a m i m
|------0-------0-----5p3---0-------|------0-------0-----5p3---0-------|
|----1---1---3---3-------6---3-1-0-|----1---1---3---3-------6---3-1-0-|
|--2-------4-------5---------------|--2-------4-------5---------------|
|----------------------------------|----------------------------------|
|----------------------------------|----------------------------------|
|----------------------------------|----------------------------------|
  2 1   2 1

  p i a p a
|------0---5p3---0-----7p5-3---0---|----------------------------------|
|--------------6-----3-------6---3-|--1-------------------1-----------|
|----6---6---------6---------------|----4-2-0-----2-----0---------4---|
|--7-------------------------------|----------4h5---3-2-----2---3-----|
|----------------------------------|--------------------------5-----5-|
|----------------------------------|----------------------------------|
  4 3         3 1

|----------------------------------|----------------------------------|
|----------------------------------|----------------1-------3-------5-|
|------2-------0-------------------|--------------0-------4-------5---|
|----2-------0---------3-------3---|------3-----2-------3-------5-----|
|--3-----3-2-----2---3-------3-----|----2---2-3-------5-------7-------|
|------------------5-----5-4-----4-|--3-------------------------------|

|----------------------------------|----8p7-5-----------7p5-----------|
|--------6---4-------8p5-----6---0-|----------8p6-5---6-----8-7p5-4---|
|------5-------5---------5-----7---|--5-------------5---------------4-|
|----7-----4-----7-5-------5-------|----------------------------------|
|--8-------------------------------|----------------------------------|
|----------------------------------|----------------------------------|

|----5p3-------------3p1p0---------|----1-0-------------------------8----|
|--5-----6-5p3-2---3-------3p1p0---|--1-----3p1p0-----------4----10------|
|----------------2---------------0-|--------------2-0-----5---11------11-|
|----------------------------------|------------------4h7----------------|
|----------------------------------|-------------------------------------|
|----------------------------------|-------------------------------------|

  a i m a a m i m a    a m i m i m i  p a m i m i m i
|--8---0-----------7---------------|----8--------------------0-------------|
|----8---1-----------8---0---------|------12-11-10-9-8---------4-3-2-------|
|----------0-----------7---0-------|-------------------11-10---------5-4-3-|
|------------2---------------0-----|---------------------------------------|
|--------------3---------------2---|---------------------------------------|
|----------------3---------------3-|--8------------------------------------|

"" = правой рукой играть как фламенко
|----------------------------------|----------------------------------|
|----------------------------------|----------------------------------|
|--2-------------------2-----------|----------------------------------|
|----6-5-4-3---------2---5---5-3p0-|----2-------5-3p0---2-------5-3p0-|
|------------7-6-5-3-------2-------|--3-----3-2-------3-----3-2-------|
|----------------------------------|------3---------------3-----------|

                          p i a m p i a m p a  i m i
|----------------------------------|----------------------------------|
|----------------------------------|----------------------------------|
|----------------------------------|--------------------2-0-----------|
|------0-------0-------------0-----|------2-------2---------3-2-------|
|----7-------8-----0-3p2p0-----2---|----3---3---5---5-3---------5-3-2-|
|--8-----8-7-----7---------4-----4-|--5-------7-----------------------|

|----------------------------------|----------------------------------|
|----------------------------------|----------------------------------|
|--------------------2-0-----------|----------------------------------|
|------2-------2---------3-2-------|------2-------3-------3-------2---|
|----3---3---5---5-3---------5-3-2-|----4---4---5---5---2---2---3---3-|
|--5-------7-----------------------|--5-------5-------3-------3-------|

                            p i a m      p a  m a m i m
|------------------------0-------11-12-|------0-------0-----5p3---0-------|
|----------------------0------12-------|----1---1---3---3-------6---3-1-0-|
|--------------2-----1-----13----------|--2-------4-------5---------------|
|------3p0-------1-2-------------------|----------------------------------|
|----2-----3p0-------------------------|----------------------------------|
|--4-----------------------------------|----------------------------------|
                          p i a p a
|------0-------0-----5p3---0-------|------0---5p3---0-----7p5-3---0---|
|----1---1---3---3-------6---3-1-0-|--------------6-----3-------6---3-|
|--2-------4-------5---------------|----6---6---------6---------------|
|----------------------------------|--7-------------------------------|
|----------------------------------|----------------------------------|
|----------------------------------|----------------------------------|

|----------------------------------|----------------------------------|
|--1-------------------1-----------|----------------------------------|
|----4-2-0-----2-----0---------4---|------2-------0-------------------|
|----------4h5---3-2-----2---3-----|----2-------0---------3-------3---|
|--------------------------5-----5-|--3-----3-2-----2---3-------3-----|
|----------------------------------|------------------5-----5-4-----4-|

|----------------------------------|----------------------------------|
|----------------1-------3-------5-|--------6---4-------8p5-----6---0-|
|--------------0-------4-------5---|------5-------5---------5-----7---|
|------3-----2-------3-------5-----|----7-----4-----7-5-------5-------|
|----2---2-3-------5-------7-------|--8-------------------------------|
|--3-------------------------------|----------------------------------|

|----8p7-5-----------7p5-----------|----5p3-------------3p1p0---------|
|----------8p6-5---6-----8-7p5-4---|--5-----6-5p3-2---3-------3p1p0---|
|--5-------------5---------------4-|----------------2---------------0-|
|----------------------------------|----------------------------------|
|----------------------------------|----------------------------------|
|----------------------------------|----------------------------------|
                            a i m a a m i m a
|----1-0-------------------------8----|--8---0-----------7---------------|
|--1-----3p1p0-----------4----10------|----8---1-----------8---0---------|
|--------------2-0-----5---11------11-|----------0-----------7---0-------|
|------------------4h7----------------|------------2---------------0-----|
|-------------------------------------|--------------3---------------2---|
|-------------------------------------|----------------3---------------3-|

   a m i m i m i  p a m i m i m i
|----8--------------------0-------------|----------------------------------|
|------12-11-10-9-8---------4-3-2-------|----------------------------------|
|-------------------11-10---------5-4-3-|--2-------------------2-----------|
|---------------------------------------|----6-5-4-3---------2---5---5-3p0-|
|---------------------------------------|------------7-6-5-3-------2-------|
|--8------------------------------------|----------------------------------|

|----------------------------------|----------------------------------|
|----------------------------------|----------------------------------|
|----------------------------------|----------------------------------|
|----2-------5-3p0---2-------5-3h0-|------0-------0-------------0-----|
|--3-----3-2-------3-----3-2-------|----7-------8-----0-3p2p0-----2---|
|------3---------------3-----------|--8-----8-7-----7---------4-----4-|

  p a m i (так же)->
|----------------------------------|----------------------------------|
|----------------------------------|----6-------5-------3-------2-----|
|----0-------0---------------------|------5-------6-------2-------0---|
|------2-------2-----3-------2-----|--------7-5-----5-3-----3-2-----2-|
|--3-----3-1-----1-----3-------2---|--0-------------------------------|
|------------------5-----5-3-----3-|----------------------------------|

|----------------------------------|----6-------5---------------------|
|----3-------1---------------------|------6-------7-----8-------7-----|
|------2-------2-----3-------2-----|--------7-5-----5-----7-------5---|
|--3-----3-1-----1-----3-------2---|------------------8-----8-7-----7-|
|------------------5-----5-3-----3-|--5-------------------------------|
|----------------------------------|----------------------------------|

|------------------------------------|
|----6-------6-----------------------|
|------7-------7------8--------7-----|
|--8-----8-6-----6------8--------6---|
|------------------10-----10-8-----8-|
|------------------------------------|

|-----11----------10---------8-------7-----|
|--------11----------12--------8-------6---|
|-----------12-10-------10-8-----8-6-----6-|
|------------------------------------------|
|--10--------------------------------------|
|------------------------------------------|

   a m i a i m i p a m i a i     a i m i
|----8-7-6-5-4-------0-------------|----------------------------------|
|--------------8-7-6---4-3-2-------|----------------------------------|
|--5-------------------------5-4-3-|--2---------------------0---0-----|
|----------------------------------|----6-5-4-3-----0-----6---------0-|
|----------------------------------|------------7-6-----6---------8---|
|----------------------------------|------------------8-------7-------|

       p a m i a i m i a i m i                   p a m i
|----4h3-2---0---------------------|----------------------------------|
|----------6---4-3-2---------------|----------------------------------|
|--------------------5-4-3-2-------|----------------------------------|
|----------------------------6-5-4-|--3-------------------3-1---1-----|
|--3-------------------------------|----7-6-5-4---------3---------4-1-|
|----------------------------------|------------8-7-6-4-------3-------|

       p a m i
|----------------------------------|--------------------------------6-|
|----------------------------------|----------------------------5-----|
|----1---------------3-------1-----|----5-------------------5-----5---|
|------1-----4---------3-------3---|------5-----8p5-----5-----5-------|
|--------3-----6---------4-2-----5-|--------6-------------7-----------|
|--4-------5-----8-6---------------|--8-------9-----9-8---------------|

                               p p a p a p  a i
|--4p1-----------------------------|--------------3---4---------------|
|------1-----------------------2---|------------4---4---4-------------|
|--------1-----1-----------2h3---2-|--1p0-----3-----------5-----------|
|----------2h3---3-1---------------|------3-1---------------6-5h6-4---|
|--------------------4p3p1---------|--------------------------------6-|
|----------------------------------|----------------------------------|

              a  i m i m i
|----------------------------------|----------------------------------|
|--------------------2p1-----------|----------------------------------|
|------1-------1---------3-1-------|------1-------4-------4-------3---|
|----3---3---4---4-3---------4-3-1-|----3---3---6---6---6---6---4---4-|
|--4-------6-----------------------|--4-------4-------5-------6-------|
|----------------------------------|----------------------------------|

|----------------------------------|----------------------------------|
|--------------------4p3-----------|----------------------------------|

|------3-------3---------5-3-------|------3-------6-------6-------5---|
|----5---5---6---6-5---------6-5-3-|----5---5---8---8---8---8---6---6-|
|--6-------8-----------------------|--6-------6-------7-------8-------|
|----------------------------------|----------------------------------|

|-----------------------------------|----0-------------------------7-11-|
|-------------6-------6-------7-----|------2-----------------0---7------|
|----8----------6-------7-------8---|--------3-----------------8--------|
|------10---------8-6-----6-------9-|--4-------4-----------4------------|
|--9------9-8---------------9-------|------------7p4-----6--------------|
|-----------------------------------|----------------6h7----------------|

|-------------------------------4-7-|----------------------0-------0---|
|-----------------------------4-----|------0-------0-----0---0---1---1-|
|----6--------------------1-4-------|----1---1---2---2-0-------2-------|
|------8----------------1-----------|--2-------4-----------------------|
|--6-----10-6---------2-------------|----------------------------------|
|-------------9p6-3h4---------------|----------------------------------|

|------2-------2-------4-------6---|------7-------7-------6-------7---|
|----2---2---4---4---4---4---5---5-|----7---7---9---9---8---8---7---7-|
|--3-------4-------5-------6-------|--8-------9-------9-------8-------|
|----------------------------------|----------------------------------|
|----------------------------------|----------------------------------|
|----------------------------------|----------------------------------|

|------4-------5-------2-------3---|----------------------------------|
|----6---6---5---5---4---4---3---3-|------5-------6-------4-------5---|
|--7-------6-------5-------4-------|----6---6---5---5---5---5---4---4-|
|----------------------------------|--8-------7-------7-------6-------|
|----------------------------------|----------------------------------|
|----------------------------------|----------------------------------|

|----------------------------------|
|------2-------3-------3-------4---|
|----3---3---2---2---2---2---2---2-|
|--5-------4-------3-------3-------|
|----------------------------------|
|----------------------------------|
       4 1 3

|--------0-------12-16-------10----------11----|
|------0------12----------10----10----10----10-|
|----1-----13----------10----------10----------|
|--2-------------------------------------------|
|----------------------------------------------|
|----------------------------------------------|

                   p i a m p i a m
|-----------12-16----12-16-------12----------12----|
|--------12-------12----------13----13----15----15-|
|-----13-------------------14----------16----------|
|--14----------------------------------------------|
|--------------------------------------------------|
|--------------------------------------------------|
   3 2              3 2 1   4 3 1

    a m i a i m i p i a m
|-----17-15-13-12----------------12----------12----|
|--13-------------15-13-12----13----13----15----15-|
|--------------------------14----------16----------|
|--------------------------------------------------|
|--------------------------------------------------|
|--------------------------------------------------|
  1 4 3 1                  4 3 1

    a m i a m i p p
|-----17-15-13-12-------------15-13-12-------------|
|--13-------------15-14----15----------15-13-12----|
|-----------------------14----------------------12-|
|--------------------------------------------------|
|--------------------------------------------------|
|--------------------------------------------------|


|-----13-12-10----------------12-10-8-----------|
|--13----------13-12-10----12---------12-10-9---|
|-----------------------10--------------------9-|
|-----------------------------------------------|
|-----------------------------------------------|
|-----------------------------------------------|

         m i m i p            m  a      a
|-----10-8-7-------------8p5-----------|--8p5-0-----------7p4-------------|
|--10--------10-8------------7---------|--------1---------------0---------|
|-----------------10-9-8-------7p5-----|----------2-----------7---1-------|
|----------------------------------7---|------------2---------------0-----|
|------------------------------------6-|--------------3p0-------------2---|
|--------------------------------------|--------------------------------4-|
                 4 1 2

|----5-4-3-2-----------------------|----------------------------------|
|------------6-5-4-3---------------|----------------------------------|
|--------------------6-5-4-3-------|----------------------------------|
|----------------------------7-6-5-|--4-------------------3-2---2p0---|
|--0-------------------------------|----8-7-6-5-------0-3-----------2-|
|----------------------------------|------------9-8-7---------4-------|

  p  p  p  p  p  p  p  p    p  p  p  p  p  p  p  p
|----------------------------------|----------------------------------|
Добавлено: 13.11.2015
http://primanota.ru/niccolo-paganini/kapris-n5-chords.htm
Привет, Гость.
Предлагаем пройти революционный курс по гитаре.
Подарок от PrimaNota.Ru, забирай!