PrimaNota.ru - самый крупный в мире бесплатный архив песенных текстов, аккордов, табулатур и нот


Паганини Никколо - Большая саната в А, 1-ая часть - аккорды и текст, видео

Регистрация Запомнить меня
Войти через:  Facebook Google Twitter Vk Yandex Mail.ru

Паганини Никколо - Большая саната в А, 1-ая часть - аккорды и текст, видео

Печатать
Просмотров: 172
Большая саната в А, 1-ая часть
Паганини Никколо
Allegro risoluto
E||----------------------|--2-----0--------2-0---------|
B||--2---------3----4----|---------------------3-2-3-0-|
G||----------------------|---------------2-------------|
D||-------2--------------|-------------2---------------|
A||--0-------------------|-----0--4--------------------|
E||----------------------|---------------------0-------|

E|-----------------------|--------------------|-2-----4-7-5--2-|
B|-------------0-----3-2-|-0---------2--------|-3--------------|
G|-2---------------------|----1-1-1--2--------|----2-----------|
D|----2-----2-----2------|--------------2-----|-0--------------|
A|-0-----4---------------|-0--------------4-0-|----------------|
E|-------------4-----0---|--------------------|----------------|

E|---------------5-4-2-0-----|------------------------|
B|-4--5--5---------------3-2-|--2--0--0-------2--0----|
G|-------2-------------------|----------------------2-|
D|---------------------------|--0----------1----------|
A|-4--------0----------------|------------------------|
E|---------------------------|------------------------|

E|-------------------------|--9----------10----11-|
B|-------------------------|----------------------|
G|-2--1--------------------|----------------------|
D|-------4--2-----0--------|-------11-------------|
A|-------------------4--2--|--0-------------------|
E|-0-----------0-----------|----------------------|

E|-14-----12------14-12-10-9-10----|---------------7----10--9-|
B|------------------------------12-|--10----------------------|
G|---------------------------------|--------------------------|
D|---------------------------------|--------------------------|
A|-----0---------------------------|------0-----0-------------|
E|---------------------------------|---------9----------0-----|

E|-7-----------------------|-2-----4--7--5--2-|---------------|
B|----9--9--9--10----------|-3----------------|-4-5-5-3-3-2-2-|
G|-------------------------|----2-------------|-----2---2-----|
D|-------------7-----------|-0----------------|---------4-----|
A|-----------------7-----0-|------------------|-4-------------|
E|-0------------------9----|------------------|---------------|

E|----------2----------|-----9--7-------------------------7--9-|
B|----0--3--------2--0-|-----------10--9--7-----7--9--10-------|
G|-3-----------2--4----|---------------------9-----------------|
D|-0-----------2-------|--7------------------------------------|
A|---------------------|--0------------------0-----------------|
E|----------------0----|---------------------------------------|

E|-10-9-7--7---------------0--2--4-|-5-------------------------|
B|------------10-9-9-7--5----------|---2-0----------------0--2-|
G|---------------------------------|-------2-1-------1-2-------|
D|---------------------------------|-----------4-2-4-----------|
A|---------------------------------|-0-----------0-------------|
E|-0-------0-------0-------0-------|---------------------------|

E|------------------------------------|----------5-|
B|-3--2--0--0-------------------------|----------2-|
G|-------------2--1--1--------------1-|-2--------2-|
D|----------------------4--2--2--4----|----------2-|
A|------------------------------------|-0--------0-|
E|-0--------0--------0--------0-------|------------|

E|-9---7-5-4-------|--------2--4--5--9-|-7-------5--4--2-------|
B|------------7--6-|-7---2-------------|------------------5--4-|
G|-6---------------|-------------------|-----------------------|
D|-----------------|-------------------|-----------------------|
A|---0--------4----|-------------------|-7---------------------|
E|-----------------|---2---------------|------0----------------|

E|-0----------------0--2--|--3-------------------0---0---0---|
B|---------0--2--4--------|----------1---------------1-------|
G|------------------------|----0---0---0---0---0---0---0---0-|
D|-2----------------------|------2-------2-------2-------2---|
A|------------------------|--3---------------3---------------|
E|------0-----------------|----------------------------------|

E|-3-------------------0---0---0---|
B|---------0---------------0-------|
G|---0---0---0---0---0---0---0---0-|
D|-----2-------2-------2-------2---|
A|-2---------------2---------------|
E|---------------------------------|

E|--3-------------------3---2---0---|
B|----------0---------------0-------|
G|----0---0---0---0---0---0---0---0-|
D|------2-------2-------2-------2---|
A|--1---------------1---------------|
E|----------------------------------|

E|---------0-2-4-5--5--4--2--|--4----4---5---6---7---7---5---4-|
B|-4-0-2-4----------------0--|--0------------------------------|
G|------------------4--4-----|---------------------------------|
D|------------------4--2--1--|--2--2---4---5---6---6---4---2---|
A|-2-------------------------|---------------------------------|
E|---------------------------|---------------------------------|

E|-2--------0-2-4-5--5--4--2-|--4----4---5---6---7---7---5---4-|
B|----0-2-3----------------0-|--0------------------------------|
G|-------------------4--4----|---------------------------------|
D|-1-----------------4--2--1-|-----2---4---5---6---6---4---2---|
A|---------------------------|---------------------------------|
E|---------------------------|--0------------------------------|

E|----2--2--4--2--4--2--4--|--2--11--11--12--11--12--11--12-|
B|----0--0--0--0--0--0--0--|--0------0---0---0---0---0---0--|
G|-------------------------|---------11--13--11--13--11--13-|
D|----------2-----2-----2--|--------------------------------|
A|-2-----2-----2-----2-----|--2-----------------------------|
E|-------------------------|--------------------------------|

E|-11--14--17--16--14------------|-----------------------------|
B|-0-------------------17-16--14-|-12-11-12-13-14-12-10-9-10-7-|
G|-11----------------------------|-----------------------------|
D|-------------------------------|-----------------------------|
A|-------------------------------|-----------------------------|
E|-------------------------------|-----------------------------|

E|-0-----------0--0-------|---------------------|-0-4-0------5-|
B|----0-----0--------4--2-|-0-------------0-2-4-|--------4-2-7-|
G|-------1----------------|----2-----2----------|--------------|
D|------------------------|-------1-------------|--------------|
A|------------------------|-------------2-------|----------0---|
E|-0-----------0----------|---------------------|-----4--------|

E|---------------|--------------------|------------------------|
B|-9---10-9-7--8-|-9-------9--7-------|----------------------9-|
G|-9--------8----|---------------9--8-|-6--------------8--9----|
D|---9------9----|---6---6------------|----6-----6-------------|
A|---------------|-----6--------------|-------7----------------|
E|-7-------------|-8-------8----------|-9-----------9----------|

E|----7--------0----------------|-----------------------|
B|-7--------9-------------4--2--|--2--------------------|
G|-------7--------6--4----------|------------4--2--1----|
D|-------------------4----------|-------4-------------4-|
A|----------7-------------------|-----------------------|
E|------------------------2-----|-----------------------|

E|-12---------------12--11--9--|-------------------------------|
B|-----------------------------|--12------------12--12--11--10-|
G|-9---------------------------|-------------------------------|
D|-----9------9----------------|-------------------------------|
A|--------11-------------------|------9------9-----------------|
E|---------------0-------------|--11-----11-----11-------------|

E|----------------5-|-4-----------2--3-|-4-------------4--6--8-|
B|-9--7-------------|----0-----0--4--2-|-----------------------|
G|-------9--8--6--6-|-------3-----4--2-|-5---------------------|
D|------------------|------------------|-6--1-----1------------|
A|----------------0-|-2----------------|-------3---------------|
E|-0----------------|------------------|-------------4---------|

E|-9--11--12-------9----------|-------------------------|
B|--------9-----------10------|--9-----------------9--7-|
G|--------9---------------11--|------11--9---------8----|
D|----------------------------|----------8----9---------|
A|-0------------0-------------|--11---------------------|
E|----------------------------|--------------------7----|

E|-------0-6-7-9-7-------0-6-7-9-7-|
B|-----0---------------0-----------|
G|---------------------------------|
D|---6---------------6-------------|
A|---------------------------------|
E|-0---------------0---------------|

E|--------2-5-4-2-0-----------------|
B|------0-----------4-2-0-----------|
G|----2-------------------2-1-------|
D|----------------------------4-2-1-|
A|--2-------------------------------|
E|----------------------------------|


E|-------0-6-7-9-7-------0-6-7-9-7-|
B|-----0---------------0-----------|
G|---------------------------------|
D|---6---------------6-------------|
A|---------------------------------|
E|-0---------------0---------------|

E|--------2-5-4-2-0-----------------|
B|------0-----------4-2-0-----------|
G|----2-------------------2-1-------|
D|----------------------------4-2-1-|
A|--2-------------------------------|
E|----------------------------------|

E|-------0---4---5---7----9----10----9-|
B|-----0---5---7---9---10---12----11---|
G|---1---------------------------------|
D|-------------------------------------|
A|-------------------------------------|
E|-0---------------0-------------------|

E|-----10----9---7---5---4---2---0-----|
B|--12----10---9---7---5---3---2---0-3-|
G|-------------------------------------|
D|-------------------------------------|
A|-------------------------------------|
E|-------------0-------0-------0-------|

E|----------0--2--4--5--7--|--9--11--12--11--14--12--11--9-|
B|-2--2--4-----------------|-------------------------------|
G|-2-----------------------|-------------------------------|
D|-------------1--2--4--6--|--7--9---11--10--13--11--9---7-|
A|----0--2--4--------------|-------------------------------|
E|-------------------------|-------------------------------|

E|-7--12--11--10--9--8--7--6--|--7--12--16--0--4--4-2-4-2-0-2-|
B|----------------------------|-------------------------------|
G|----------------------------|-------------------------------|
D|-6--------------------------|-------------------------------|
A|----------------------------|-------------------------------|
E|----------------------------|-------------------------------|

E|-------0-6-7-9-7-------0-6-7-9-7-|
B|-----0---------------0-----------|
G|---------------------------------|
D|---6---------------6-------------|
A|---------------------------------|
E|-0---------------0---------------|

E|--------2-5-4-2-0-----------------|
B|------0-----------4-2-0-----------|
G|----2-------------------2-1-------|
D|----------------------------4-2-1-|
A|--2-------------------------------|
E|----------------------------------|

E|-------0-6-7-9-7-------0-6-7-9-7-|
B|-----0---------------0-----------|
G|---------------------------------|
D|---6---------------6-------------|
A|---------------------------------|
E|-0---------------0---------------|

E|--------2-5-4-2-0-----------------|
B|------0-----------4-2-0-----------|
G|----2-------------------2-1-------|
D|----------------------------4-2-1-|
A|--2-------------------------------|
E|----------------------------------|

E|-------0---4---5---7----9----10----9-|
B|-----0---5---7---9---10---12----11---|
G|---1---------------------------------|
D|-------------------------------------|
A|-------------------------------------|
E|-0---------------0-------------------|

E|-----10----9---7---5---4---2---0-----|
B|--12----10---9---7---5---3---2---0-3-|
G|-------------------------------------|
D|-------------------------------------|
A|-------------------------------------|
E|-------------0-------0-------0-------|

E|----------0--2--4--5--7--|--9--11--12--11--14--12--11--9-|
B|-2--2--4-----------------|-------------------------------|
G|-2-----------------------|-------------------------------|
D|-------------1--2--4--6--|--7--9---11--10--13--11--9---7-|
A|----0--2--4--------------|-------------------------------|
E|-------------------------|-------------------------------|

E|-7----7---9---10----12----14----16----17-|
B|-----------------------------------------|
G|-----------------------------------------|
D|-6--6---7---9----11----12----14----16----|
A|-----------------------------------------|
E|-----------------------------------------|

E|--19------------------16--19--19-|
B|------12--14--16--17-------------|
G|---------------------------------|
D|--18-----------------------------|
A|---------------------------------|
E|---------------------------------|

E|---------0--4--7--12----------|
B|-------0--------------12------|
G|-----1--------------------13--|
D|---2--------------------------|
A|-2----------------------------|
E|------------------------------|

E|--4---2-4-2-4-2-4-2-4-2-4-2-0-2-|
B|--------------------------------|
G|--4-----------------------------|
D|--------------------------------|
A|--------------------------------|
E|--------------------------------|

E|-0-----------------------|-----------------7--6--5-|
B|----0-----0-----5--4--2--|--0----------------------|
G|-------1-----------------|-----2-----2-------------|
D|-------------------------|--------1----------------|
A|-------------------------|--------------2----------|
E|-0-----------0-----------|-------------------------|

E|-5----4----4--2--4--5--7--9--|--9-------------------|
B|-----------------------------|-----------------9--7-|
G|-----------------------------|-------9---------8----|
D|-----------------------------|-------8----9---------|
A|-----------0-----------------|----------------------|
E|-0---------------------------|-----------------7----|

E|-0----------------0--------------|-----------------7--6--5-|
B|------0-----0--------4--3--2--1--|--0----------------------|
G|---------1-----------------------|-----2-----2-------------|
D|---------------------------------|--------1----------------|
A|---------------------------------|--------------2----------|
E|-0-------------0-----------------|-------------------------|

E|-5----4-------2--4--5--7--9--|--9----0--------------|
B|-----------------------------|------------0----9--7-|
G|-----------------------------|-----------------8----|
D|-----------------------------|-------8--------------|
A|-----------0-----------------|----------------------|
E|-0---------------------------|-----------------7----|

E|-------0----2--------0----11--|--------0----2--------0----11-|
B|-----0------0------0---0--10--|------0------0------0---0--10-|
G|---1-------------1--------11--|----1-------------1--------11-|
D|---------1-----2--------------|----------1-----2-------------|
A|------------------------------|------------------------------|
E|-0----------------------------|--0---------------------------|

E|----0--4--7--12-----------|-------0----0--|------------------|
B|--------------------------|-------0----0--|------------------|
G|--------------------------|-------1----1--|------------------|
D|-----------------2--------|--2----2----2--|--9--------7----6-|
A|--------------------2-----|-------2----2--|------------------|
E|-0---------------------4--|--0----0----0--|--7--------5----4-|

E|-------------------|---------------------|-------------|
B|-------------------|---------------------|-------------|
G|-------------------|---------------------|-------------|
D|-4--------2--------|--9--------7----6----|--4--------3-|
A|-------------------|---------------------|-------------|
E|-2--------0--------|--7--------5----4----|--2--------1-|

E|-----------------|------------------|-4--2--0----------------|
B|-----------------|------------------|-6--3--2--3--2--0-------|
G|-7--------6----4-|------------------|----------4--2--1--2--1-|
D|-----------------|-7----6----4----3-|-------------------4--3-|
A|-5--------4----2-|------------------|------------------------|
E|-----------------|-5----4----2----1-|------------------------|

E|--------------------------------|
B|--------------------2---2---2---|
G|-2------------------------------|
D|------4---4---4---4---4---4---4-|
A|----0-------0-------0-------0---|
E|-2------2-------2-------2-------|

E|----------------------------------|
B|--3-------2-----------2---2---0---|
G|----1---1---1---1---1---1---1---1-|
D|------3-------3-------3-------3---|
A|----------------------------------|
E|--1-------1-------1-------1-------|

E|---------------------------------|
B|---------------------2---2---2---|
G|-2-------------------------------|
D|---4---4---4---4---4---4---4---4-|
A|-----0-------0-------0-------0---|
E|-2-------2-------2-------2-------|

E|---------------------4-2-0-------|
B|--3-------2----------------3-2-0-|
G|----1---1---1---1----------------|
D|------3-------3------------------|
A|---------------------------------|
E|--1-------1-------1--------------|

E|---------------------------------|
B|---------------------2---2---2---|
G|-2-------------------------------|
D|---4---4---4---4---4---4---4---4-|
A|-----0-------0-------0-------0---|
E|-2-------2-------2-------2-------|

E|----------3-----------0-----------|
B|--2-----------------------3---2---|
G|----------------------------------|
D|----2---2---2---2---2---2---2---2-|
A|------0-------0-------0-------0---|
E|--0-------0-------0-------0-------|

E|---------------------------------|
B|-3-------------------3---3---3---|
G|---------------------------------|
D|---0---0---0---0---0---0---0---0-|
A|-----0-------0-------0-------0---|
E|-2-------2-------2-------2-------|

E|----------2-----------------------|
B|--2-------------------5---3---2---|
G|----3---3---3---3---3---3---3---3-|
D|------4-------4-------4-------4---|
A|----------------------------------|
E|--2-------2-------2-------2-------|

E|---------------------------------|
B|-3-------0-----------0---2---3---|
G|---------------------------------|
D|---0---0---0---0---0---0---0-----|
A|-----2-------2-------2-------2-4-|
E|-2-------2-------2-------2-------|

E|----------2----------5-3-2-0-----|
B|--2--------------------------3-2-|
G|----3---3---3---3----------------|
D|------4-------4------------------|
A|---------------------------------|
E|--2-------2-------2--------------|

E|---------------------------------|
B|-0-------------------0---0---0---|
G|---------------------------------|
D|---0---0---0---0---0---0---0---0-|
A|-----2-------2-------2-------2---|
E|-2-------2-------2-------2-------|

E|----------------------------------|
B|--3-------1-----------3-1-0---1---|
G|----------------------------------|
D|----0---0---0---0---0---0---0---0-|
A|------0-------0-------0-------0---|
E|--2-------2-------2-------2-------|

E|---------------------3-----------|
B|-0-------3---------------3---0---|
G|---------------------------------|
D|---0---0---0---0---0---0---0---0-|
A|-----2-------2-------2-------2---|
E|-3-------3-------3-------3-------|

E|---------------------5-3-2-0-----|
B|--3-------1------------------3-1-|
G|---------------------------------|
D|----0---0---0---0----------------|
A|------0-------0------------------|
E|--2-------2-------2--------------|

E|---------------------------------|
B|-0-------------------0---0---0---|
G|---------------------------------|
D|---0---0---0---0---0---0---0---0-|
A|-----2-------2-------2-------2---|
E|-3-------3-------3-------3-------|

E|----------2-----------------------|
B|--0-------------------0---0---0---|
G|----2---2---2---2---2---2---2---2-|
D|------1-------1-------1-------1---|
A|----------------------------------|
E|--2-------2-------2-------2-------|

E|---------3-----------------------|
B|-0-------------------0---0---0---|
G|---1---1---1---1---1---1---1---1-|
D|-----2-------2-------2-------2---|
A|---------------------------------|
E|-0-------0-------0---------------|

E|----------3-----------3-1-0-------|
B|--0-------------------------3-1-0-|
G|----0---0---0---0---0---0---0---0-|
D|------0-------0-------0-------0---|
A|----------------------------------|
E|--1-------1-------1-------1-------|

E|----3-3-3-3-3-3-3-3---3---3---3-|
B|-1----------------------3---5---|
G|--------------------5-----------|
D|--------------------------------|
A|--------------------------------|
E|-0------------------------------|

E|----3---3---3---3---3---3---3---3-|
B|--3-------------------------------|
G|------5---4---2---0---------------|
D|----------------------3---2---0---|
A|----------------------------------|
E|----------------------------------|

E|-3--0-0-0-0-0-0-0-0---0---0---0-|
B|-1----------------------0---1---|
G|-0------------------2-----------|
D|-2------------------------------|
A|-3------------------------------|
E|--------------------------------|

E|----0---0---0---0---0---0---0---0-|
B|--0-------------------------------|
G|------2---1-----------------------|
D|--------------3---2---0-----------|
A|--------------------------3---2---|
E|----------------------------------|

E|-0--5-5-5-5-5-5-5-5---5---5---5-|
B|-1------------------------------|
G|-2------------------------------|
D|-2--------------------------2---|
A|-0------------------0---3-------|
E|--------------------------------|
Добавлено: 26.09.2013
Другие материалы по этой песне:
  • Аккорды и текст

Страница создана 26.09.2013
http://primanota.ru/niccolo-paganini/bolshaya-sanata-v-a-1-aya-chast-chords.htm
Привет, Гость.
Предлагаем пройти революционный курс по гитаре.
Подарок от PrimaNota.Ru, забирай!