PrimaNota.ru - самый крупный в мире бесплатный архив песенных текстов, аккордов, табулатур и нот


Misc Unsigned Bands - Syith - Six Revolutions Better Than Vegas - бас-таба, видео

Регистрация Запомнить меня
Войти через:  Facebook Google Twitter Vk Yandex Mail.ru

Misc Unsigned Bands - Syith - Six Revolutions Better Than Vegas - бас-таба, видео

Печатать
Просмотров: 97
-------------------------------------------------------------------------------
                             Six Revolutions (Better Than Vegas) - Syith
-------------------------------------------------------------------------------
Tabbed by: ThorChicken
E-mail: privateawesome00@gmail.com

Tuning: Standard (EADG)

G|------------------4--|(4X)
D|---6--4--3--1--3-----|
A|---------------------|
E|---------------------|

G|---6--6--6--6--6--6--8--8--8\3-----------|
D|-----------------------------------4--5--|
A|--------------------------------4--------|
E|-----------------------------------------|

G|--------------------------------|

D|--6--4--6--------6--4--6--------|

A|--------------------------------|

E|-----------4--4-----------4--4--|

G|--6--4--6---------8--6--8----------|
D|-----------------------------------|
A|------------4--4----------6--6\2---|
E|-----------------------------------|

G|--6--4--6----------------------------|
D|-----------------6--4--6-----4h6-----|
A|-----------4--4----------4h6---------|
E|---------------------------------4b--|

G|--13----11---9---7---5---3---1----------|
D|-----11----9---7---5---3---1------------|
A|----------------------------------------|
E|-------------------------------1/12\1---|


(Power chords)
G|--8--6--5--6--5--6--8-------|

D|--6--4--3--4--3--4--6-------|

A|----------------------11\1--|
E|----------------------------|


| /  slide up
| \  slide down
| h  hammer-on
| p  pull-off
| b  bend
===============================================================================
Добавлено: 21.08.2015
Другие материалы по этой песне:
  • Аккорды и текст

Страница создана 21.08.2015
http://primanota.ru/misc-unsigned-bands/syith-six-revolutions-better-than-vegas-chords.htm
Привет, Гость.
Предлагаем пройти революционный курс по гитаре.
Подарок от PrimaNota.Ru, забирай!