PrimaNota.ru - самый крупный в мире бесплатный архив песенных текстов, аккордов, табулатур и нот


Misc Unsigned Bands - Ken Ashcorp - Absolute Territory - бас-таба

Регистрация Запомнить меня
Войти через:  Facebook Google Twitter Vk Yandex Mail.ru

Misc Unsigned Bands - Ken Ashcorp - Absolute Territory - бас-таба

Печатать
Просмотров: 253
Ken Ashcorp - Absolute Territory - Bass tabs

Hello!
You can check my cover on youtube: http://www.youtube.com/watch?v=clAmUaxtDrw
On that video I played song In Drop C tuning (CDCF) cause my bass was tuned that 
way and I was too lazy to re-tune it :D
But I tabbed it in Standard tunning now (EADG)
Refren is  little bit off...handle it ^^
Also check Kens youtube profile for more song: http://www.youtube.com/user/kenashcorp?feature=watch
and check my profile for other covers :)




G|-------------3-------------------------------3-----------------------|
D|55-355-355-35-5011-011------44-455-355-355-35-5011-011------44-------|
A|-----------------------533-3---------------------------533-3---------|
E|---------------------------------------------------------------------|

G|-------------3-------------------------------3-----------------------|
D|55-3555355-35-5011-011------44-455-355-355-35-5011-011------4444-----|
A|-----------------------533-3---------------------------533-3---------|
E|---------------------------------------------------------------------|

G|-------------3-------------------------------3-----------------------|
D|55-3555355-35-5011-011------44-455-355-355-35-5011-011------44-------|
A|-----------------------533-3---------------------------533-3---------|
E|---------------------------------------------------------------------|

G|--------------3-------------------------------3----------------------|
D|455-3555355-35-5011-011------44-455-355-355-35-5011-011--------------|
A|------------------------533-3---------------------------533-3--------|
E|---------------------------------------------------------------------|

G|---------------------------------------------------------------------|
D|-------1/35/8------------------1/35/8--------------------------------|
A|--------------56-53-31-1--------------56-53-31-1-1-11----------------|
E|3~----------------------3~-------------------------------------------|

G|-------------3-------------------------------3-----------------------|
D|55-3555355-35-5011-011------44-455-355-355-35-5011-011------44-------|
A|-----------------------533-3---------------------------533-3---------|
E|---------------------------------------------------------------------|

G|--------------3-------------------------------3----------------------|
D|455-3555355-35-5011-011------44-455-355-355-35-5011-011------44-4----|
A|------------------------533-3---------------------------533-3--------|
E|---------------------------------------------------------------------|

G|---------------------------------------------------------------------|
D|-------1/35/8------------------1/35/8--------------------------------|
A|--------------56-53-31-1--------------56-6-53-3/8--------------------|
E|3~----------------------3~-------------------------------------------|

G|---------------------------------------------------------------------|
D|11111111333333335555555588888888111111113333333355555555-------------|
A|---------------------------------------------------------1-11111-----| 
E|---------------------------------------------------------------------|

G|--------------------------3---2--------------------------------------|
D|1-111-113-333-334-444-4455-533-31-1-110------------------------------|
A|---------------------------------------3-33-331----------------------|
E|-----------------------------------------------3~--------------------|

G|-------------3-------------------------------3-----------------------|
D|55-3555355-35-5011-011------44-455-355-355-35-5011-011--------4------|
A|-----------------------533-3---------------------------53-3-3--------|
E|---------------------------------------------------------------------|

G|-------------3-------------------------------3-----------------------|
D|55-3555355-35-5011-011------44-455-355-355-35-501-1-111-----3-4------|
A|-----------------------533-3---------------------------53-3----------|
E|---------------------------------------------------------------------|

G|-------------3-------------------------------3-----------------------|
D|55-3555355-35-5011-011------44-455-355-355-35-5011-011-----10--------|
A|-----------------------533-3---------------------------533---1-------|
E|--------------------------------------------------------------3------|

G|---------------------------------------------------------------------|
D|-------1/35/8------------------1/35/8--------------------------------|
A|--------------56-53-31-1--------------56-6-53------------------------|
E|3~----------------------3~-------------------------------------------|

G|---------------------------------------------------------------------|
D|11111111333333335555555588888888111111113333333355555555-------------|
A|---------------------------------------------------------1-11111-----| 
E|---------------------------------------------------------------------|

G|--------------------------3---2--------------------------------------|
D|1-111-113-333-334-444-4455-533-31-1-110------------------------------|
A|---------------------------------------3-33-331----------------------|
E|-----------------------------------------------3~--------------------|



Tabbed by 5ko 31.03.2013
Добавлено: 04.12.2013
Другие материалы по этой песне:
  • Аккорды и текст

Страница создана 25.10.2013
http://primanota.ru/misc-unsigned-bands/ken-ashcorp-absolute-territory-chords.htm
Привет, Гость.
Предлагаем пройти революционный курс по гитаре.
Подарок от PrimaNota.Ru, забирай!