PrimaNota.ru - самый крупный в мире бесплатный архив песенных текстов, аккордов, табулатур и нот


Misc Unsigned Bands - The Devil Who Deceived Them - Grey - бас-таба

Регистрация Запомнить меня
Войти через:  Facebook Google Twitter Vk Yandex Mail.ru

Misc Unsigned Bands - The Devil Who Deceived Them - Grey - бас-таба

Печатать
Просмотров: 117
-------------------------------------------------------------------------------
                             Grey - The Devil Who Deceived Them
-------------------------------------------------------------------------------
Tabbed by: K Beats
E-mail: niggaramus

Tuning: Half-step down


G|---------------------------------------------------------------------------|   }}}
D|---------------------------------------------------------------------------|      }
A|-------------------------------------7h10----------------------------------|       }
E|-----------------------------------8---------------------------------------|        }
B|0--0-0--0---0---0--0000--0-0--7h10-----------------------------------------|         }
                                                                                        }
                                                                                        }
G|---------------------------------------------------------------------------|          }
D|---------------------------------------------------------------------------|           }
A|------------------------------15---------12--------------------------------|           }
E|----------------------------------13-13------12h13-------------------------|           }
B|0--0-0--0---0---0--0000--0-0-----------------------------------------------|           }
                                                                                        }
                                                                                        |
G|-----------------------------------------------------------------------|              }
D|-----------------------------------------------------------------------|              }
A|-------------------------------------7h10------------------------------|              }
E|-----------------------------------8-----------------------------------|             }
B|0--0-0--0---0---0--0000--0-0--7h10-------------------------------------|             }
the 3rd time around ring out even more                                                 }
                                                                                      }
G|---------------------------------------------------------------------------|       }
D|---------------------------------------------------------------------------|       }
A|---------------------------------------------------------------------------|       }
E|------------------------------13-13---13-13---13-13------------------------| repeat}
B|0--0-0--0---0---0--0000--0-0-----------------------------------------------|
the 4th time around mute the zero chugs with left hand

G|---------------------------------------------------------------------------|
D|---------------------------------------------------------------------------|
A|------------0h3-------------3p0-------------0h3----------------------------| x2
E|------0-2-2-----------0-2-2-----------0-2-2--------------------------------|
B|0-1-1-----------0-1-1-----------0-1-1------------3-2-1--2-1-2---1----------|


G|---------------------------------------------------------------------------|
D|---------------------------------------------------------------------------|
A|---------------------------------------------------------------------------|
E|---------------------------------------------------------------------------|
B|1----0----3-2---2--2-2--2--2-2---1----0----3-2--222-2--2-2--3-3-3----------|


G|---------------------------------------------------------------------------|
D|---------------------------------------------------------------------------|
A|---------------------------------------------------------------------------|
E|---------------------------------------------------------------------------|
B|1-1-1-1-1-1--0-0-0-0-0-0--3-3-2-2-2-2-2-2-2-2-2-2-2-2-2-2------------------|


G|----------------------------------|----------------------------------------|
D|----------------------------------|----------------------------------------|
A|----------------------------------|----------------------------------------|
E|----------------------------------|----------------------------------------|
B|1-1-1--0-0-0--3-2--222-2-2--3-3-3-|----------------------------------------|


G|---------------------------------------------------------------------|
D|---------------------------------------------------------------------|
A|---------------------------------------------------------------------|
E|---------------------------------------------------------------------|
B|3b^5//p0h2--2h3p2---2h3p2----3b^5//p0h2--2h3p2---2h3p2--0-2b^4//-----|
  SLAP EVERY NOTE FOR THIS BREAKDOWN ^^

G|---------------------------------------------------------------------|
D|---------------------------------------------------------------------|
A|---------------------------------------------------------------------|
E|---------------------------------------------------------------------|
B|3b^5//p0h2--2h3p2---2h3p2----3b^5//p0h2--2h3p2---2h3p2--0-2b^4p0h2b^4| 


G|----------------------------------------------------------------------|
D|----------------------------------------------------------------------|
A|---10\-------9\-------------------------------------------------------|
E|----------------------------------------------------------------------|
B|8--------7--------5--4--1-1-1----4bd^6\\\\----------------------------|                  
lead in to choppy part

G|---------------------------------------------------------------------------|
D|---------------------------------------------------------------------------|
A|---------------------------------------------------------------------------|
E|-------------------------------------------------------------7----5--------|
B|x-x-x-1b^2-1b^2-x-x-1b^2-1b^2-x-x--1-1b^2-x-1b^2-1b^2--x-x-x--8----7---5--7|
this part you want to start with the 4 bent up so it creates a bass drop effect

G|---------------------------------------------------------------------------|
D|---------------------------------------------------------------------------|
A|---------------------------------------------------------------------------|
E|---------------------1-1/2-2/3-3/4-4/5-5-------------------7----5----------|
B|x-x--1b^2-1b^2--x-x-----------------------1b^2-1b^2--x-x-x---8----7--5--7\\|


G|----------------------------------------------------------------------------|
D|----------------------------------------------------------------------------|
A|----------------------------------------------------------------------------|
E|---------------------111-1-111-111----------------------7----5--------------|
B|x-x--1b^2-1b^2--x-x------------------x-1b^2-1b^2--x-x-x---8----7--5--7-7\\--|


G|------------|---------------------------------||--|--------------------------------|
D|--------6---|---10-----10-----10-----10-------||--|--8-------8-------7---7----8----|
A|------7----7|8------8------8------8-----8\----||x2|5---5---5---5-5-----5----5---5-5|x2
E|----5-------|-------------------------------1/||--|--------------------------------|
B|5-7---------|---------------------------------||--|--------------------------------|
lead in to groove            

G|-----------------------------------||--|-----------------------------------|
D|---10-----10-----10-----10---------||--|--8-------8-------7---7----8-------|
A|8------8------8------8------8-8-8-8||x2|5---5---5---5-5-----5----5---5-5---|
E|-----------------------------------||--|-----------------------------------|
B|-----------------------------------||--|-----------------------------------|
third measure of groove^^

G|---------------------------------------------------------------------------|
D|---10-----10-----10-----10---------------10-----10-----10-----10-----------|
A|8------8------8------8------x-x-x-xx--8------8------8------8------8\-------|
E|---------------------------------------------------------------------1/----|
B|---------------------------------------------------------------------------|
fourth measure ^^^^

G|--------------------------------|---------------------------|--------------|
D|--8-------8-------7---7----8----|---------------------------|--------------|
A|5---5---5---5-5-----5----5---5-5|---------------------------|--9--\--------|
E|--------------------------------|7---7\5-5---5\3-3---3\2-2--|--7--\--------|
B|--------------------------------|---------------------------|--------------|
                              leading out of groove^^ let ring out

G|-------------------------------------|------------------------------------------------|
D|-------------------------------------|------------------------------------------------|
A|-------------------------------------|------------------------------------------------|
E|-------------------------------------|12\\\------------------xxx-xxx------------------|
B|1-2-1---1--1-2-1---1---2-1---1--1-2-1|-----x-2-1---1--1-2-1----------2-1---1--1-2-1--0|


G|----------------------------------------------------------------------------------|
D|----------------------------------------5------------5---------4------------4-----|
A|---6--------------------------------------6-5-6-5------6---------3---3--------3---|
E|3-----3--2---2-2---2-2-2-2-22-2-0--3--3------------3------2--2-----2---2--2-----2-|
B|----------------------------------------------------------------------------------|


G|---------------------------------------------------------------------------|
D|---------------------------------------------------------------------------|
A|---------------------------------------------------------------------------|
E|---------------------------------------------------------------------------|
B|3---0-3-3--0--3--0-0--3-3--0-2---0-2-2-2----1-1--1/2/3/4/5/12--------------|






| /  slide up
| \  slide down
| h  hammer-on
| p  pull-off
| ~  vibrato
| +  harmonic
| x  Mute note
| b  Bend note
| bd Bend Down note
===============================================================================
Добавлено: 22.08.2015
Другие материалы по этой песне:
  • Аккорды и текст

Страница создана 22.08.2015
http://primanota.ru/misc-unsigned-bands/devil-who-deceived-them-grey-chords.htm
Привет, Гость.
Предлагаем пройти революционный курс по гитаре.
Подарок от PrimaNota.Ru, забирай!