PrimaNota.ru - самый крупный в мире бесплатный архив песенных текстов, аккордов, табулатур и нот


Misc Unsigned Bands - The Automatic-stops - Nah Nah Nah Nah Working Title - бас-таба

Регистрация Запомнить меня
Войти через:  Facebook Google Twitter Vk Yandex Mail.ru

Misc Unsigned Bands - The Automatic-stops - Nah Nah Nah Nah Working Title - бас-таба

Печатать
Просмотров: 147
Уроки эстрадного вокала в Санкт-Петербурге
-------------------------------------------------------------------------------
             NAH NAH NAH NAH (working title) - The Automatic-Stops
-------------------------------------------------------------------------------
Tabbed by: 
E-mail: 

Tuning: Half step down
Intro 2x:
Gb|---------------------------------------------------------------------------|
Db|---------------------------------------------------------------------------|
Ab|7-7-7-7-7-7-7-6-6-6-6-6-6-6-0-0-0-0-0-0-0-7-7-7-7-7-7-7--------------------|
Eb|---------------------------------------------------------------------------|
   "Nah nah nah nah. Nah nah nah nah. Nah nah nah nah nah nah"      

Verse 1 2x:        
Gb|---------------------------------------------------------------------------|
Db|---------------------------------------------------------------------------|
Ab|7-7-7-7-7-7-7-6-6-6-6-6-6-6-0-0-0-0-0-0-0-7-7-7-7-7-7-7--------------------|
Eb|---------------------------------------------------------------------------|
   "Yeah, I'm through with going nowhere, I'm gonna do nothing at all.
    What's the point of trying if every time I seem to fall?"

Interlude 2x:
Gb|---------------------------------------------------------------------------|
Db|---------------------------------------------------------------------------|
Ab|7-7-7-7-7-7-7-6-6-6-6-6-6-6-0-0-0-0-0-0-0-7-7-7-7-7-7-7--------------------|
Eb|---------------------------------------------------------------------------|
   "Nah nah nah nah. Nah nah nah nah. Nah nah nah nah nah nah"      

Verse 2 2x:        
Gb|---------------------------------------------------------------------------|
Db|---------------------------------------------------------------------------|
Ab|7-7-7-7-7-7-7-6-6-6-6-6-6-6-0-0-0-0-0-0-0-7-7-7-7-7-7-7--------------------|
Eb|---------------------------------------------------------------------------|
   "Just you wait, I'll make you see, if anything I'll make you blind. 
    You're gonna regret leaving this loser behind."

Chorus 2x:
Gb|---------------------------------------------------------------------------|
Db|---------------------------------------------------------------------------|
Ab|4-4-4-4---------------2-2-2-2----------------------------------------------|
Eb|-------5-5-5-5-0-0-0-0-----------------------------------------------------|
   "Every time I try, I'm just another step closer to failure. 
    I can't quite put my finger on it."

Chorus cont.
Gb|---------------------------------------------------------------------------|
Db|---------------------------------------------------------------------------|
Ab|-----------------------2-2-2-2---------------------------------------------|
Eb|2-2-2-2-5-5-5-5-0-0-0-0----------------------------------------------------|
   "Isn't there a place in time where I don't feel like a failure?"

Chorus cont.
Gb|---------------------------------------------------------------------------|
Db|---------------------------------------------------------------------------|
Ab|---------------2-2-2-2-----------------------------------------------------|
Eb|2-2-2-2-5-5-5-5------------------------------------------------------------|
    "Why can't I do some good?"

Then it all repeats.

| /  slide up
| \  slide down
| h  hammer-on
| p  pull-off
| ~  vibrato
| +  harmonic
| x  Mute note
===============================================================================
Добавлено: 21.08.2015
Другие материалы по этой песне:
  • Аккорды и текст

Страница создана 21.08.2015
http://primanota.ru/misc-unsigned-bands/automatic-stops-nah-nah-nah-nah-working-title-chords.htm
Привет, Гость.
Предлагаем пройти революционный курс по гитаре.
Подарок от PrimaNota.Ru, забирай!