PrimaNota.ru - самый крупный в мире бесплатный архив песенных текстов, аккордов, табулатур и нот


Misc Unsigned Bands - The Devil Who Deceived Them - Love Lost - бас-таба, видео

Регистрация Запомнить меня
Войти через:  Facebook Google Twitter Vk Yandex Mail.ru

Misc Unsigned Bands - The Devil Who Deceived Them - Love Lost - бас-таба, видео

Печатать
Просмотров: 108
-------------------------------------------------------------------------------
                             LOVE : LOST bass - TDWDT
-------------------------------------------------------------------------------
Tabbed by: Koral Robustelli
E-mail: 

Tuning: Half Step Down

G|-------------------------------------------------|---5----------------------------------|
D|-0h7h8------8p7p0-8p7p0-------------0h7h8--------|-------7------7/8----7\5------5-------|
A|-------0-0--------------8b--00--000------0h7h8///|3-----------------8------7-7----7-5---|
E|-------------------------------------------------|---------8-8------------------------7-|

G|------------7-----------------7----10/12--------|--------------------------|
D|-------------8-7///------------8p7-------10h12--|.repeat first 3 measures--|
A|-0--0-0--0-----------0-0-0-0--------------------|.-------------------------|
E|------------------------------------------------|--------------------------|

G|----------------------------------|-----------------------------------7----7----7---|
D|----------------------------------|------------------------------------8-7--8-7--8--|
A|-8--8-/-12--12-\---7--7-/-10--10--|-0--0-0--0--0000--0000-0000-0000-----------------|
E|----------------------------------|-------------------------------------------------|
                                    eighth notes ^^^^    ^  ^     ^  ^>>quadruplets
G|----------------------------------7----10/12--------|----------------------|
D|-----------------------------------8p7-------10h12--|---MUTE---------------|
A|-0--0-0--0--0000--0000-0000-0000--------------------|----------------------|
E|----------------------------------------------------|----------------------|
             same measure besides   ^^
G|--------------------------------|------------------------------------------|
D|--------------------------------|------------------------------------------|
A|-2--3--2--3-2-3-2--5--4---------|-2--3--2--3-2-5-4-------------------------|
E|------------------------5-4b5r4-|-------------------2--3--x-x-x------------|
   after guitar lead in       ring out in to next measure^
G|-------------------------------------------------|-------------------------------|
D|-------------------------------------------------|-------------------------------|
A|-2--3b4r3--2-mute--3--2--3b4r3--2--5--4--------5-|-2--3b4r3--2--3-2-5-4----------|
E|-----------------------------------------5--4----|----------------------2-3------|
                                                           ring out to next ^
G|-------------------------------------------------|-------------------------|
D|-------------------------------------------------|-------------------------|
A|-2--3b4r3--2-mute--3b4r3--2--3b4r3--2---x-x------|-2--3b4r3--2-mute-5-4----|
E|-------------------------------------------------|----------------------2-3|

G|---------------------------------|-----------------------------------------|
D|---------------------------------|-----------------------------------------|
A|-2----3----0---00--2----3----0---|-reapeat---------------------------------|
E|---------------------------------|-----------------------------------------|
  lead in to technical bridge 
G|---------------------------------------------------------------------------|
D|---------------------------------------------------------------------------|
A|-2--22-22-2-3-33-33-3-0--0--00-0--00-00-00--22-22-2-3-33-33-3-0--0--00-0--0|x2
E|---------------------------------------------------------------------------|

G|---------------------------------------------4-----4----------4-----4------|
D|----10-----9--9--10\\-----4-----5--4--5\\----------------------------------|
A|-8------8--------------3-----3------------2-----2-----2-2--2-----2-----2-2-|x2 = first 2 measures
E|---------------------------------------------------------------------------|

G|---------------------------------------------------4-4-------4-4---------4-4------4-4---|
D|---10-10-------9-9--9-10\\----4-4--5--5-5-4-5-------------------------------------------|
A|8-8------8-8--8----8-8-----3-3----3--3---3-----2--2----2-2--2---2-2--2--2---2-2--2---2-2| = 3rd measure
E|----------------------------------------------------------------------------------------|

G|---------------------------------------------------------4-4--------4-4----|
D|----10--------9-----9-10\\----4-----5---------4-5--------------------------|
A|-8-----8-8-8----8-8--------3----3-3----3-3-3-------2--2------2-2--2-----2-2|
E|---------------------------------------------------------------------------|

G|---------------------------------------------------------------------------|
D|-8-7-----------8---7-------8---7-8-7-------10--9---9h10p9------------------|
A|-----0-0-0-0-0-------0-0-0---0-------0-0-0----------------0----------------|x2 (2nd time decrescendo)
E|---------------------------------------------------------------------------|
  after guitar lead in
G|---------------------------------------------------------------------------|
D|---------------------------------------------------------------------------|
A|--------------------------------------------------10--9---9h10p9-----------|x2 (decrescendo again)
E|-10\5b6-0-0-0-0-0-10\\5b6-0-0-0-10\5/10\5b6-0-0-0----------------0---------|

G|---------------------------------------------------------------------------|
D|---------------------------------------------------------------------------|
A|-1b-0--0-0-0-0-0-1b---0-0-0-0-1b--0-1b-0--0-0-0-3-2---2h3p2----------------|x2 (once more decrescendo-ing)
E|------------------------------------------------------------0--------------|

G|---------------------------------------------------------------------------|
D|---------------------------------------------------------------------------|
A|-1b-0------------1b---0-------1b-----0-1b-0-------3-2---2/3----------------|x2 (second ring out)
E|-------1-1-1-1-1--------1-1-1----x-x--------1-1-1--------------------------|
 all slap-style for last 2 measures



| /  slide up
| \  slide down
| h  hammer-on
| p  pull-off
| ~  vibrato
| +  harmonic
| x  Mute note
| b  Bend note
| r  Release bend
===============================================================================
Добавлено: 24.08.2015
Другие материалы по этой песне:
  • Аккорды и текст

Страница создана 24.08.2015
http://primanota.ru/misc-unsigned-bands/devil-who-deceived-them-love-lost-chords.htm
Привет, Гость.
Предлагаем пройти революционный курс по гитаре.
Подарок от PrimaNota.Ru, забирай!