PrimaNota.ru - самый крупный в мире бесплатный архив песенных текстов, аккордов, табулатур и нот


Misc Unsigned Bands - The Devil Who Deceived Them - Catharsis - бас-таба

Регистрация Запомнить меня
Войти через:  Facebook Google Twitter Vk Yandex Mail.ru

Misc Unsigned Bands - The Devil Who Deceived Them - Catharsis - бас-таба

Печатать
Просмотров: 120
Уроки эстрадного вокала в Санкт-Петербурге
-------------------------------------------------------------------------------
                             CATHARSIS - TDWDT
-------------------------------------------------------------------------------
Tabbed by: Koral
E-mail: 

Tuning: Eb Ab Db F#

G|---------------------------------------------------------------------------|
D|--------------------------------------------12-----------------------------|
A|-------------6------6------------------------------------------------------|
E|8-8--8--8-8----8--8---8-8--11-11--11--11-11----11-11-11-10\\---------------|
following guitar lead-in
G|---------------------------------------------------------------------------|
D|--------------------------------------------12----------12-----------------|
A|-------------6------6------------------------------------------------------|
E|8-8--8--8-8----8--8---8-8--11-11--11--11-11----11-11-11----11-11-----------|

G|-----------------------------|---------------------------------------------|
D|-----------------------------|-------------------------8-8-8---------------|
A|6--3--5--3--6--3--5-3-0-2-3-2|6--3--5--3--6--3--5--3-0---------------------|x2
E|-----------------------------|---------------------------------------------|
hold these notes out
G|---------------------------------|-----------------------------------------|
D|---------------------------------|-----------------------------------------|
A|6--3--5--3--6--3--5--3--5--3-3333|6--3--5--3--6-00-2-2--22-2-2-------------|
E|---------------------------------|-----------------------------------------|
cut these notes short
G|---------------------------------|-----------------------------------------|
D|---------------------------------|-----------------------------------------|
A|6--3--5--3--6--3--5--3--5--3-3333|6--3--5--3--6-0--5--6--------------------|
E|---------------------------------|-----------------------------------------|
                                hold these notes out ^  ^
G|-------------------------------|-------------------------------------------|         )
D|---------------8---------------|---------------12-x10----------------------|          )
A|6-x6-x6--6-666--x9-x8----------|8-x8-x8--8-888-------x10-101010-10/12\10---|          )
E|---------------------xx8--8h9p8|-------------------------------------------|          )
double time (circle pit)                                quick slide ^                   )x4
G|-------------------------------|----------------------|--------------------|          )
D|---------------8---------------|----------------------|--------------------|          )
A|6-x6-x6--6-666--x9-x8----------|5-5--6--6\\3-3--5--5//|-5b-----------------|          )
E|---------------------xx8--8h9p8|----------------------|--------------------|         )
                                         4th measure bend ^
G|--------------------------------|--------------------------------------------|
D|--------------------------------|--------------------------------------------|
A|0000--00--x-x-0-x-0--0--0000-0-0|000--00--1-1-1--1-1--111--------------------|x2
E|--------------------------------|--------------------------------------------|
  POWER BREAKDOWN/LEAD IN TO SILENT IS SAD ASSASSIN
G|---------------------------------------------------------------------------|
D|---------------------------------------------------------------------------|
A|-------5--5-4-----4-----4b4^-4^-4^-4^-4^-----------------------------------|
E|3b-x0-x--x----x-x---x-x----------------------------------------------------|
  (SILENT IS THE SAD ASSASSIN, AS SOMBER AS SHARP GREY)
G|---------------------------------------------------------------------------|
D|--------------------------------------------8h11---------------------------|
A|-------8--8-7-----7-----7b-7^-7^-7^-7^--7h8--------------------------------|
E|3b-x0-x--x----x-x---x-x----------------------------------------------------|

G|---------------------------------------------------------------------------|
D|---------------------------------------------------------------------------|
A|-------5--5-4-----4-----4b4^-4^-4^-4^-4^-----------------------------------|
E|3b-x0-x--x----x-x---x-x----------------------------------------------------|

G|---------------------------------------------------------------------------|
D|-------8--8-7-----7-----7-7-7-7-7\\\---------------------------------------|
A|---------------------------------------------------------------------------|
E|3b-x0-x--x----x-x---x-x----------------------------------------------------|

G|--------------------------------------------|---------------------------------|
D|--------------------------------------------|---------------------------------|
A|2-222-222-222-2--2--2-222--3-2--x-x-x--2-3-2|2-2-2--222--2--222-2---1--11-1--1|x2
E|--------------------------------------------|---------------------------------|
fast choppy breakdown nigguh
G|-----------------------------------------------------|----------------------------------|
D|-----------------------------------------------------|----------------------------------|
A|1-111-111-111-1--1--0-5-2-----------------------2h3p2|1-1-1--111--1-111-1--0--0-1b-0--0-|
E|--------------------------0-3-2-0-0-3-2-x-x-x-0------|----------------------------------|

G|-----------------------------------------------------|
D|-----------------------------------------------------|
A|1-1-1--11-1--1-1-11-1--0--0-1b-0--0------------------|
E|-----------------------------------------------------|

G|--------------------------------------------------------|
D|--------------------------------------------------------|
A|1-11-1-1-11-1-11-1--1--0-5-2-----------------------2h3p2|
E|-----------------------------0-3-2-0-0-3-2-x-x-x-0------|

G|-----------------------------------------------------|
D|-----------------------------------------------------|
A|-1-1-1--11-1--1-1-11-1--2-3-2x2-3-2-0-1--------------|
E|-----------------------------------------------------|


| /  slide up
| \  slide down
| h  hammer-on
| p  pull-off
| ~  vibrato
| +  harmonic
| x  Mute note
| b  Bend note
| ^  slowly bend while picking
===============================================================================
Добавлено: 22.08.2015
Другие материалы по этой песне:
  • Аккорды и текст

Страница создана 22.08.2015
http://primanota.ru/misc-unsigned-bands/devil-who-deceived-them-catharsis-chords.htm
Привет, Гость.
Предлагаем пройти революционный курс по гитаре.
Подарок от PrimaNota.Ru, забирай!