PrimaNota.ru - самый крупный в мире бесплатный архив песенных текстов, аккордов, табулатур и нот


Misc Unsigned Bands - The Devil Who Deceived Them - At The Stake - бас-таба

Регистрация Запомнить меня
Войти через:  Facebook Google Twitter Vk Yandex Mail.ru

Misc Unsigned Bands - The Devil Who Deceived Them - At The Stake - бас-таба

Печатать
Просмотров: 92
-------------------------------------------------------------------------------
                 At The Stake - The Devil Who Deceived Them
-------------------------------------------------------------------------------
Tabbed by: KoralRobustelli
E-mail: 

Tuning: Half Step Down

G|---------------------------------------------------------------------------|
D|---------------------------------------------------------------------------|
A|-3b-3b--x-x--3b-3b--5-----------3b-3b--x-x--3b-3b--5---4-------------------|
E|---------------------6-5h6p5p3----------------------6---5-4----------------|

G|---------------------------------------------------------------------------|
D|---------------------------------------------------------------------------|
A|-2b-2b--1-1--2b-2b--2-----------2b-2b--111111--2b-2b--2---1----------------|
E|---------------------3-2h3p2p0-------------------------3---2-1-------------|
            rapid succession 16th notes  ^^^^^^
G|---------------------------------------------------------------------------|
D|---------------------------------------------------------------------------|
A|-1b-1b--0-0--1b-1b--1-----------1b-1b--000000--1b-1b---6p5---5p4--4//-----|
E|---------------------2-1h2p1p0------------------------5-----4----4-//------|

G|---------------------------------------------------------------------------|
D|---------------------------------------------------------------------------|
A|---13p12----12p11----11///-----16p15----15p14----14-----18p17---17p16---16-|
E|-12-------11-------11--------15-------14-------14-----17------16------16---|

G|-----------------|------------------------------------|--------------------|
D|-----------------|------------------------------------|--------------------|
A|-0-3-2-1-2-1-0-1-|-0000--0-0--00--0-0-0-3-2-1-2-1-0-1-|-1b-1b--0--0-1b-1b--|
E|-----------------|------------------------------------|--------------------|
          quadruplet ^^^^              
G|-----------------|------------------------------------|--------------------|
D|-----------------|------------------------------------|--------------------|
A|-0-3-2-1-2-1-0-1-|-0000--00---00--0-0-0-3-2-1-2-1-0-1-|-1b-1b--0--0-1b-1b--|
E|-----------------|------------------------------------|--------------------|
         eighth notes ^     
G|-----------|--------------------------------------------------------------------|
D|-----------|--------------------------------------------------------------------| x2
A|-2-1-0-1---|-3-3-3---00-2--00-2-0---------------3-3-3---00-2--00-2-0-2-3-2-3-2--| 
E|-----------|-----------------------0-0--0-0--0----------------------------------|
transition^   bridge
G|---------------------------------------------------------------------------|
D|---------------------------------------------------------------------------|
A|-2b-2b-2b---5-4--0--00--1-2-1-0---2b-2b-2b---5---4-------------------------|
E|----------------------------------------------3-0-3-0---4b-4b--0-4b-4b--0--|
   bendy extravaganza/lead in to more bendy extravaganza
G|----------------------------|----------------------------|-----------------|
D|----------------------------|----------------------------|-----------------|
A|----------------------------|----------------------------|-----------------|
E|-00-4b--0-4b-4b--0-4b-4b--0-|-00-4b--0-4b-4b--0-4b-4b--0-|-----------------|

G|----------------------------|----------------------------|-----------------|
D|----------------------------|----------------------------|-----------------|
A|-00-6b--0-6b-6b--0-6b-6b--0-|----------0-0-0-1/////////--|-3---0-3-2-0-1-1-|
E|-00-4b--0-4b-4b--0-4b-4b--0-|-00-4b--0-------------------|-----------------|
                                                             bridge to lead
G|-----------------|---------------------------------------------------------|
D|-----------------|---------------------------------------------------------|
A|0--1-1--0--2-22b-|-3-3---0-2-0-00--0-3-3---0-2-0-00--0---------------------|x3
E|-----------------|---------------------------------------------------------|
                      build up to breakdown^^
G|------------------------3--------------------------------------------------|
D|---------------------------------------------------------------------------|
A|-3-3---0-2-000000--1-1-----1-1--11--1-1--3////12\\\\-----------------------|
E|---------------------------------------------------------------------------|
   final build up^                  gradual bass slide^
G|--------------------------------|------------------------------------------|
D|--------------------------------|------------------------------------------|
A|-1--1---1--1------------11-1--1-|-1--1---------------------1-11-1--1-------|x2
E|--------------1///4-\\----------|-------1//4-1//4--1//4\\\-----------------|

G|---------------------------------|------------------------------------------------|
D|---------------------------------|------------------------------------------------|
A|-0--0---0--0-1b--00-0-0-00-00-0-0|-0--0---1br-1br-0--0-00-00-00-0--0--------------|x2
E|---------------------------------|------------------------------------------------|

G|------------------------------------------|--------------------------------|
D|------------------------------------------|--------------------------------|
A|--12-12-12--------------------------------|--12-12-12-------------0-3-0-2-2|
E|-0---------13-13-13-13-12-12-12-10--10-10-|-0---------13-13-13-13----------|
groove section
G|---------------------------------|-----------------------------------------|
D|---------------------------------|-----------------------------------------|
A|--12-12-12--------------9h10p9-9-|--12-12-12-------------3--2-2--3--2-2----|
E|-0---------13-13-13-13-----------|-0---------13-13-13-13-------------------|

G|-------------------------------|-------------------------------------------|
D|-------------------------------|-------------------------------------------|
A|--5-5-5------------------------|--5-5-5---------0-3-0-2-2------------------|
E|-0------6-6-6-6-5-5-5-3--3-3---|-0------6-6-6-6----------------------------|

G|-------------------------------|-------------------------------------------|
D|-------------------------------|-------------------------------------------|
A|--5-5-5---------2h3p2-2--------|--5-5-5---------3-2-2--3-2-2--3-2-2--3-2-2-|
E|-0------6-6-6-6----------------|-0------6-6-6-6----------------------------|

G|------3------------------3--------------|----------------------------------|
D|----------------------------------------|----------------------------------|
A|-1-1----1-1-1-1////-1-1----3-2-2--3-2-2-|-1-1--11-11--1-1///8\\\1--1111----|
E|----------------------------------------|----------------------------------|

G|----------------------------------------|---------------------------------------------|
D|----------------------------------------|---------------------------------------------|
A|-1-1--11-11--3-2-2--3-2-2--3-2-2--3-2-2-|-1-1--1--1--1-1///8\\\1-1--1--1--3-2-2--3-2-2|
E|----------------------------------------|---------------------------------------------|
             build up to slow dowwnnn       ^^^
G|---------------------------------------------------------------------------|
D|---------------------------------------------------------------------------|
A|-1-1--2-1--1-1--0---1-1--2-1--3-2-2--3-2-2--0-0-0-0------------------------|
E|---------------------------------------------------------------------------|

| /  slide up
| \  slide down
| h  hammer-on
| p  pull-off
| ~  vibrato
| +  harmonic
| x  Mute note
| br bend release
| b  bend
===============================================================================
Добавлено: 21.08.2015
Другие материалы по этой песне:
  • Аккорды и текст

Страница создана 21.08.2015
http://primanota.ru/misc-unsigned-bands/devil-who-deceived-them-at-stake-chords.htm
Привет, Гость.
Предлагаем пройти революционный курс по гитаре.
Подарок от PrimaNota.Ru, забирай!